Mark Knopfler

Mark Knopfler - Once Upon A Time In The West guitar tab

Once Upom A Time - Mark Knopfler

(Soundtrack: The Princess Bride)

(NOTE: it's *NOT* the Song "Once Upon A Time In The West"

from the Record "Communique")

The time scale may not be correct...

1:02

e:-0-0-0-----1---1>3-0-----0----------------------0--------------

B:---------1-------------1---3--4>5---1-->3-3---3---3-1----------

G:---------------------------------------------------------------

D:---------------------------------------------------------------

A:---------------------------------------------------------------

E:---------------------------------------------------------------

1:15

e:-0-0----1-1---1>3-0------0---0---------------------------------

B:-1----1----------------1---3----1>3--1-1-----------------------

G:---------------------------------------------------------------

D:---------------------------------------------------------------

A:---------------------------------------------------------------

E:---------------------------------------------------------------

1:26

e:-5-5-5---6--6--6--5----------5---------------------------------

B:-------6------------8-6----6---6--10-10>6->(8)-8->(10)-10------

G:---------------------------------------------------------------

D:---------------------------------------------------------------

A:---------------------------------------------------------------

E:---------------------------------------------------------------

1:38

e:-5-x-5-5---1>6-6-6-5-------3-------3>5-------------------------

B:---------------------8-6-----3-3-------5-5---------------------

G:---------------------------------------------------------------

D:---------------------------------------------------------------

A:---------------------------------------------------------------

E:---------------------------------------------------------------

x - pick the string on the 5th fret und then mute it shortly

with your right little finger close to the bridge

1:58

e:---2-0-2---3-3->5-2-------------------2------------------------

B:-3-------3---------------7-7->3-x-5-5---5-3--------------------

G:-----------------------7---------------------------------------

D:---------------------------------------------------------------

A:---------------------------------------------------------------

E:---------------------------------------------------------------

2:10

e:-----------------------------2-0->2----------------------------

B:-7--7--7----->8-8-8h10-7---3----------3-5---3-3----------------

G:-7--7-----7----------------------------------------------------

D:---------------------------------------------------------------

A:---------------------------------------------------------------

E:---------------------------------------------------------------

2:21

e:-7-x-7-7--------------------------7---7-7->(3)-3->(5)-5->(7)-7-

B:-8-x-8-8--8>13-13-13-12-10------8---8--------------------------

G:---------------------------12----------------------------------

D:---------------------------------------------------------------

A:---------------------------------------------------------------

E:---------------------------------------------------------------

2:33

e:-7-7-7-7--->8-8-8--7-----------2-0-2-2---3-3->(5)-2------------

B:---------8-----------10-8----3---------3-----------------------

G:---------------------------------------------------------------

D:---------------------------------------------------------------

A:---------------------------------------------------------------

E:---------------------------------------------------------------

2:46

e:---------------------------------------------------------------

B:-7-7h9h10p7--5-3-5----3----------------------------------------

G:---------------------------------------------------------------

D:---------------------------------------------------------------

A:---------------------------------------------------------------

E:---------------------------------------------------------------

...at least that's what I hear... :-)

have fun...

Get this song at:  amazon.com sheetmusicplus.com

Share your thoughts

0 Comments found