Mark Knopfler

Mark Knopfler - Marbletown guitar tab

Song Title : Marbletown

Artist : Mark Knopfler

Tabber : Straits

www.straits-tabs.tk

Intro:-

G G G

|--------3-|--------3-|--------3---3-------3--|

|--------3-|--------3-|--------3---3-------3--|

|------4-4-|----4-4-4-|--------4---4---4-4-4--|

|------5---|------5---|------3-5-3-5-3---5----|

|--3h5-----|--5-------|--3-5------------------|

|----------|----------|-----------------------|

G G G

|----------3-|--------3-|--------3---3-------3--|

|----------3-|--------3-|--------3---3-------3--|

|--------4-4-|----4-4-4-|--------4---4---4-4-4--|

|--5-----5---|------5---|------3-5-3-5-3---5----|

|----5p3-----|--5-------|--3-5------------------|

|------------|----------|-----------------------|

Verses:-

G

ROLL OUT HERE MISTER

|----------------------------------|

|----3--3----3--3----3--3----3--3--|

|----4--4----4--4----4--4----4--4--|

|----5--5----5--5----5--5----5--5--|

|----------------------------------|

|--3-------3-------3-------3-------|

F C G

IF YOU NEED A LITTLE REST

|------------------|------3---|--------3-|--------3---3-------3--|

|----1--1----1--1--|------3---|--------3-|--------3---3-------3--|

|----2--2----2--2--|------4---|----4-4-4-|--------4---4---4-4-4--|

|----3--3----3--3--|------5---|------5---|------3-5-3-5-3---5----|

|1h3-------3-------|---5------|--5-------|--3-5------------------|

|------------------|----------|----------|-----------------------|

C

ROLL OUT HERE MISTER

|----------------------------------|

|----5--5----5--5----5--5----5--5--|

|----5--5----5--5----5--5----5--5--|

|----5--5----5--5----5--5----5--5--|

|--3-------3-------3-------3-------|

|----------------------------------|

Bb G

IF YOU NEED A LITTLE REST

|------3--|--------3-|--------3---3-------3--|

|------3--|--------3-|--------3---3-------3--|

|------4--|----4-4-4-|--------4---4---4-4-4--|

|------5--|------5---|------3-5-3-5-3---5----|

|----5----|--5-------|--3-5------------------|

|---------|----------|-----------------------|

F C

LAY ME DOWN IN MARBLETOWN

|------1------------------3---3----|

|----1--1-----1--1------5----------|

|----2---2----2--2------5---5---5--|

|----3--------3--3------5----------|

|--3--------3-------1/3------------|

|----------------------------------|

G

A BONE YARD IS THE BEST

|-----------------|

|-----------------|

|--5p3------------|

|------5-3--------|

|----------5------|

|------------3----|

|--3---|--------3-|--------3---3-------3--|

|--3---|--------3-|--------3---3-------3--|

|--4---|----4-4-4-|--------4---4---4-4-4--|

|--5---|------5---|------3-5-3-5-3---5----|

|------|--5-------|--3-5------------------|

|------|----------|-----------------------|

*Same as 1st verse*

THERE WAS A BAD BULL ON THE RAILROAD

TRIED TO PUT ME OFF HIS TRAIN

THERE WAS A BAD BULL ON THE RAILROAD

TRIED TO PUT ME OFF HIS TRAIN

LAY ME DOWN IN MARBLETOWN

�TIL THE COAST IS CLEAR AGAIN

Chorus:-

G (throughout)

I CAN HEAR THEM A-HOLLERIN�

____

|-----------------------| |

|---------------3--3----| |

|---------------4--4----| |--Im not sure about

|----------3----5--5----| | this, i wouldn't be supprised

|----3-5-3--------------| | if its wrong :(

|--3----------3---------| ____|

WE GOT A MAN DOWN HERE,

|--3-----3--3---3--|

|----3--------3----|

|------4------4----|

|-------------5----|

|------------------|

|------------------|

WE GOT A MAN DOWN

|--3-----3--3-----|

|----3--------3---|

|------4------4---|

|-------------5---|

|-----------------|

|-----------------|

WE GOT A MAN DOWN HERE,

|--3-----3--3---3--|

|----3--------3----|

|------4------4----|

|-------------5----|

|------------------|

|------------------|

WE GOT A MAN DOWN

|--3-----3--3-----|

|----3--------3---|

|------4------4---|

|-------------5---|

|-----------------|

|-----------------|

|--3-----3--3---3--|

|----3--------3----|

|------4------4----|

|-------------5----|

|------------------|

|------------------|

|--3-----3--3-----|

|----3--------3---|

|------4------4---|

|-------------5---|

|-----------------|

|-----------------|

|------3-------------------------3--|

|--1h3---3p1---------------------3--|

|------------3p1-----------------4--|

|-----------------5-3h5p3--------5--|

|-------------------------5-3-------|

|-----------------------------3-----|

*Same as 1st verse*

I�M GONNA FLIP ME A CANNONBALL

THAT WON�T STOP FOR ANYONE

I�M GONNA FLIP ME A CANNONBALL

THAT WON�T STOP FOR ANYONE

LAY ME DOWN IN MARBLETOWN

WAIT �TIL MORNING COMES

*Same as 1st verse*

I�M GONNA ROLL OUT HERE IN THE TOMSTONES

WAIT HERE ON MY TRAIN

I�M GONNA ROLL OUT HERE IN THE TOMSTONES

WAIT HERE ON MY TRAIN

LAY ME DOWN IN MARBLETOWN

I HOPE THAT IT DON�T RAIN

*Repeat chorus*

AND I CAN STILL HEAR THEM A-HOLLERIN�

WE GOT A MAN DOWN HERE

WE GOT A MAN DOWN

WE GOT A MAN DOWN HERE

WE GOT A MAN DOWN

*Same as 1st verse*

ROLL OUT HERE MISTER

IF YOU NEED A LITTLE REST

ROLL OUT HERE MISTER

IF YOU NEED A LITTLE REST

LAY ME DOWN IN MARBLETOWN

A BONE YARD IS THE BEST

Outro:-

G

|----------3-|--------3-|--------3---3-------3--|

|----------3-|--------3-|--------3---3-------3--|

|--------4-4-|----4-4-4-|--------4---4---4-4-4--|

|--5-----5---|------5---|------3-5-3-5-3---5----|

|----5p3-----|--5-------|--3-5------------------|

|------------|----------|-----------------------|

|------3-------------------------3--|

|--1h3---3p1---------------------3--|

|------------3p1-----------------4--|

|-----------------5-3h5p3--------5--|

|-------------------------5-3-------|

|-----------------------------3-----|

Notes:-

h = hammer on

p = pull off

/ = slide

Mark Knopfler plays the whole thing with his fingers + instead of

strumming the chords he plucks each string simultaniously with his

fingers, which gives a muffled sound.

Hope there aren't too many mistakes, but i amthe 1st person to tab

this song :). I dont now why nobody has tabbed it b4, its a fantastic

song! if you like it, download Iron Hand by Mark Knopfler/Dire Straits

its similar, and also amazing :)

Get this song at:  amazon.com sheetmusicplus.com

Share your thoughts

0 Comments found