Mark Knopfler

Mark Knopfler - Junkie Doll guitar tab

Junkie Doll :Mark Knopfler

Part1

--------------------|--------------------------|---------------------------------|--------------------------|---------------------------------

--------------------|--------------------------|---------------------------------|--------------------------|---------------------------------

------3--------3--|-----3--------3-------3--|--------3----------3-3-3-3---|---3-------3---3-3-3---|-------3--------3--------------

-3---3--------3--|-----3-3------3-------3--|--------3----------3-3-3-3---|---3-------3---3-3-3---|-------3--------3--------------

-1------4^5------|------------x-----4^5----|-4---x--------------------------|------4^5---------------|-1-1-----4^5-----1-1-1-1---

-------------------|-4-------------------------|--------------4^5--------------|--------------------------|---------------------------------

Turnpike lane turnpike lane

-------------|-------------------------------|-----------------------------|--------------------|--------------------------|

-------------|-------------------------------|-----------------------------|--------------------|--------------------------|

-3--------3-|-----------------8----------8-|--------------3---------3--|-----3--------3----|---------3---------3----|

-3--------3-|-----------------8----------8-|--------------3---------3--|-----3--------3----|---------3---------3----|

-----4^5----|-1-1-------6------9^10-----|-1-1-1-1-------4^5-----|-1-1-----4^5------|----1-1------4^5------|

--------------|-------------------------------|----------------------------|---------------------|-------------------------|

You spiked my arm but you missed the vein Now it’s all gone but the scars remain

---------------------------|---------------------------------------|-------------------|

------6------4-------4---|---------------------------------------|-------------------|

---------------------------|---3-3---6^3----3---3-3---3-3---|-1^0--------------|

-6------5-------4--------|----------------6------3-3---3-3---|--------3-------3-|

---------------------------|---------------------------------------|----------4^5----|

---------------------------|---------------------------------------|-------------------|

Junkie doll I was stuck on you my junkie doll

Part2

-----------------------|--------------------------|-----------------------|--------------------|--------------------|--------------------------|

-----------------------|--------------------------|-----------------------|--------------------|--------------------|--------------------------|

-------3--------------|---------3-------3-------|--------8----------8-|-------3---------3-|------3----------3-|-------3--------3---3-3-|

-------3--------------|---------3-------3-------|--------8----------8-|-------3---------3-|------3----------3-|-------3--------3---3-3-|

-1-1-----4^5---1-1-|--1-1-----4^5----1-1-|--6-6-----9^10-----|-1-1-----4^5-----|-1-1-----4^5-----|-1-1------4^5----------|

-----------------------|--------------------------|-----------------------|--------------------|---------------------|-------------------------|

Turnham green turnham green you took my high as I’ve ever been Now it’s all gone and now I’m clean

---------------------------|---------------------------------------------------------|--------|

------6-------4------4---|---------------------4-------1----1--------------------|--------|

---------------------------|-3-3---6^3-----3-3----------3-----------------------|--------|

-6-------5------4--------|---------------6-------------------------------3--------|---3---|

---------------------------|-----------------------------------------4^5------------|--------|

---------------------------|-----------------------------------------------------1---|--------|

Junkie doll I was stuck on you my junkie doll

Bbm D# D#m Bbm

And a little bit of this’d get you up And a little bit of this’d get you down

G# D# F#

And a little bit of this’d get you up And a little bit of this’d get you down

Bbm D# D#m Bbm

And a little bit of this’d get you up And a little bit of this’d get you down

G# D# F#

And a little bit of this’d get you up And a little bit of this’d get you down

SOLO :1:26

--------------------------|-----------------------------------------|---------------|--------------------------------------------|

--------------------------|-----------------------------------------|---------------|--------------------------------------------|

--------3------------3---|----------------------------------------|-8>10---10-|-8^10---6-8~(9)~8---6---8^6---------|

-1>3-----3--------------|-6>3---1^3^1^3^1^3^1^3^1^3-|----------------|---------------------------------------8---|

---------------4^1-------|----------------------------------------|----------------|-------------------------------------------|

---------------------------|----------------------------------------|----------------|-------------------------------------------|

-----------------------|-----------------------------------|-------------------------|---|----------------------------------------------------|

-----------------------|-----------------------------------|-------------------------|---|----------------------------------------------------|

-8~(9)~8^6---8---|-8~(9)---8-6^5----------6-----|--------------------------|---|-----6---8^6---------------------6^4-----------|

-----------------------|--------------------8---6-----8-|---6---3-------------8--|---|---8------------8^6-----8--------------6-5------|

-----------------------|-----------------------------------|----------6---4---------|---|-----------------------8------>8---------------8-|

-----------------------|------------------------------------|-----------------6------|---|----------------------------------------------------|

-------------------------|---------------------|---|-------------------------|--------------------------------------------------|

->11---9^6-----------|->11---9^6-------|---|-------6-----------------|----------------4>2-----------------------------|

---------------6-5------|---------------8---|---|-6^8------6^5----------|----------------------3^1-----------------------|

--------------------8---|---------------------|---|------------------8^6---|->8---6---5---------------3^1--------3-------|

-------------------------|---------------------|---|--------------------------|-----------------------------------4^5----------|

-------------------------|---------------------|---|--------------------------|----------------------------------------------1---|

Part3 =Part2

Turnpike lane turnpike lane

You took my heart Pan american

Now rain or shine it’s all the same

Junkie doll I was stuck on you my junkie doll

-----------------------|--------------------|------------|--------------------------------------------------|---------------------------------|

------6------4-----4-|---------------4---|-------4---|-----6------------6------------4------------4---|-----------------------------4---|

-----------------------|--------------------|------------|-3-----3-----3------3-----3-----3-----3------|-3-3-6^3--------3-----3-------|

-6------5------4-----|-8---6---5--------|---4-------|-----------6-------------5------------4---------|------------6---3----6----------|

-----------------------|--------------------|------------|--------------------------------------------------|----------------------------------|

-----------------------|--------------------|------------|--------------------------------------------------|----------------------------------|

---------------|

-------4------|

----3----3---|

-4------------|

---------------|

---------------|

Bbm D# D#m Bbm

And a little bit of this’d get you up And a little bit of this’d get you down

G# D# F#

And a little bit of this’d get you up And a little bit of this’d get you down

Bbm D# D#m Bbm

And a little bit of this’d get you up And a little bit of this’d get you down

G# D# F# Bbm

And a little bit of this’d get you up And a little bit of this’d get you down

Solo…..

Get this song at:  amazon.com sheetmusicplus.com

Share your thoughts

0 Comments found