Mark Knopfler

Mark Knopfler - Imelda guitar tab

IMELDA :Mark Knopfler

Partie 1 :

-----------------------------------------|-----------------------------------------------|

---8---10---10---8---10---10---8---10----|---8---10---10---8-----------------------------|

---7----7----7---7----7----7---7----7----|---7----7----7---7----10----7------------------|

-----------------------------------------|-----------------------------------------------|

-----------------------------------------|-----------------------------------------------|

-----------------------------------------|-----------------------------------------------|

Partie 2 :

D C F Bb Bb B B

----------------|-----------------|-------------|---------------|--------------|---------------|---------------|

----------3-----|----------3------|--------3----|---------3-----|--------3-----|---------3-----|---------3-----|

------2------2--|------2-------2--|-----0----0--|------0-----0--|-----0-----0--|------0-----0--|------0-----0--|

-0--------------|-----------------|-------------|---------------|--------------|---------------|---------------|

----------------|--3--------------|-------------|--1------------|--1-----------|--2------------|--2------------|

----------------|-----------------|--1----------|---------------|--------------|---------------|---------------|

Partie 3 : Partie 4 :

D C D G G

------------|----------|-----------| |---------------|-----------------|-----------------|----------------|

--------3---|----------|--------3--| |--------3------|----------3------|----------3------|----------3-----|

--------2---|----------|--------2--| |------------0--|------0-------0--|-------0-----0---|------0------0--|

--0---------|-------3--|--0--------| |--0------------|-----------------|-----------------|----------------|

------------|--3-------|-----------| |---------------|--3--------------|-----------------|----------------|

------------|----------|-----------| |---------------|-----------------|--3--------------|--3-------------|

Partie 5 :

---------3------|-----------3------|----------3------|-------------3-------|

---------3------|-----------3------|----------3------|-------------3-------|

-----0-------0--|-------0-------0--|------0-------0--|---------0-------0---|

----------------|------------------|-----------------|---------------------|

--3-------------|--3---------------|--2--------------|--2------------------|

----------------|------------------|-----------------|---------------------|

Partie 6 :

--------------|--------------|-----------------------|---------------------------|

--------------|--------------|-----------------------|---------------------------|

--------------|--------------|-----------------------|------------0--------------|

--0-----0-----|---------0----|-------------0----0----|---3----0--------3-----0---|

--------------|----3---------|------3----------------|---------------------------|

--------------|--------------|-----------------------|---------------------------|

INTRO :Partie 1 X4

She’s going shopping ,shopping for shoes {

She wants them in magenta and caribbean blue {

Platinium and buttercup lilac and black { PARTIE 2

They fill a bucket up and laugh behind her back {

Partie 1 X2

In New York and Paris on the Champs Elysée {

They see her coming from a long long way { PARTIE 2

They clap their hands together when they get her in the store {

She’s gonna wanna get more more more and more and more {

Imelda baby {PARTIE3

Imelda baby what to do {PARTIE4

All the poor people saying that they gotta quit paying for you {Partie 5

Partie 6

Every one ‘s gone jackie O She was a regular here

---------------------| --------------------------------------|We thought

---------------------| --------------------------------------|madame

---5^7---7---5---7---| -----------------------7---7^5--------|would like to

---5-----5---5---5---| ---5^7---7---5---------5---5----------|know

---------------------| ---5-----5---5------------------------|

---------------------| --------------------------------------|

We’ve got the blood red rouge right here

-------------------------------------------|--------------------------------------------|

-------------------------------------------|--------------------------------------------|

---------------------5---------------------|---------------5----------------------------|

---7-------7---------5----------7----------|----5^3^3>7---------7---5>3---0-------------|

---7-------7--------------------7----------|--------------------------------------------|

-------------------------------------------|--------------------------------------------|

PARTIE 1 X2

Now we’ve got all of madame’s requisites and all in madame’s size {

Madame’s taste is truly exquisites she must accessorise { PARTIE 2

The belt are alligator the bags are kangaroo {

Enchanté may I say the jade was made for you {

| Imelda baby { PARTIE 3

| Imelda baby what to do {PARTIE 4

X2 | All the poor people saying that they gotta quit paying for you {PARTIE 5

| PARTIE 6

| All the poor people saying that they gotta quit paying for you {PARTIE 5

SOLO:

-----------------|---------------------|------------------|--------------------|----------------------|----------------|

-----------------|---------------------|------------------|--------------------|--8-6-----------------|----x--x----8---|

--5^2---7---7----|--5^7---5---7-----5--|--7^5^7^5^7^5^7---|--7~(10)~7---5---7--|--------7--5>7---7----|-x-----x----7---|

-----------------|---------------------|------------------|--------------------|----------------------|----------------|

-----------------|---------------------|------------------|--------------------|----------------------|----------------|

-----------------|---------------------|------------------|--------------------|----------------------|----------------|

------------------|-------|--------------|---------|---------------------------|--------------------------------|

---8---8---8---8--|--6^8--|--6^8^6^8^6---|---------|--8~(9)~8-------6-------x--|-------------8>6>8---8---6---8--|

---5---7---7---7--|-------|--------------|--7---7--|------------7-------7------|--7^5---7----7>5>7---7---5---7--|

---5---5---5---5--|-------|--------------|---------|---------------------------|--5-----5-----------------------|

------------------|-------|--------------|---------|---------------------------|--------------------------------|

------------------|-------|--------------|---------|---------------------------|--------------------------------|

-----------5^8------5------------------------|----------------------------|------------------------------|

---8~(10)--------8-----6^8---8^6-------------|--15---15---13^15^13----15--|------------------------------|

----------------------------------7---5---7--|----------------------------|--12^14^13^12-------12--------|

---------------------------------------------|----------------------------|----------------15-------15---|

---------------------------------------------|----------------------------|------------------------------|

---------------------------------------------|----------------------------|------------------------------|

----------------------------------------|----------------------------|-------------|--------------------------|

----------------------------------------|--8^10---8^10---8^10----12--|--13----13---|--13^12>10----------------|

--12~(13)~12---10---12---12---10^12^10--|--7------7------7-----------|--12----12---|--12-------10---12---10---|

----------------------------------------|----------------------------|-------------|--------------------------|

----------------------------------------|----------------------------|-------------|--------------------------|

----------------------------------------|----------------------------|-------------|--------------------------|

----------------|------------------------------------|-------------|---------------------|-------------|

-------13-------|--13--------13----------------------|-------------|---------------------|-------------|

-------12~(14)--|--12~(14)---12~(14)~12^10-----------|--5^7---5^7--|--5---5---5^7---5^7--|--5>7---5>7--|

--12------------|----------------------------12---12-|--5-----5----|--5---5---5-----5----|--5>7---5>7--|

----------------|------------------------------------|-------------|---------------------|-------------|

----------------|------------------------------------|-------------|---------------------|-------------|

---------------------------------|----------------|---------------------|------------------------------------|

---------------------------------|----------------|---------------------|------------------------------------|

--10------12---10----------------|--6---8---6^8---|--6---6---6>8---6>8--|--8>10---10---8---10---10---8---10--|

------12-----------12---10---12--|--5---5---5—5---|--5---5---5>7---5>7--|--7>-9----9---7----9----9---7----9--|

---------------------------------|----------------|---------------------|------------------------------------|

---------------------------------|----------------|---------------------|------------------------------------|

------------------------------|------------|---------------|-------|-------|----------------------|

-------------12---13------13--|--13----13--|--15-----------|---15--|---15--|--15---18^15------15--|

---12^14-----12---12---12—12--|--12----12--|-----12>14^16--|-------|-------|--------------17------|

---12^14----------------------|------------|---------------|-------|-------|----------------------|

------------------------------|------------|---------------|-------|-------|----------------------|

------------------------------|------------|---------------|-------|-------|----------------------|

---15---17^15-------------------------------------|------------------------------------------|---------------------------|

---------------18^15--------15--------------------|--13~(15)---(15)~13---10------------------|---------------------------|

-----------------------17--------17---14^17^14----|---------------------------12-10-10^12-10-|--10^12---10---------------|

-----------------------------------------17---15--|------------------------------------------|--------------12-10-10^12--|

--------------------------------------------------|------------------------------------------|---------------------------|

--------------------------------------------------|------------------------------------------|---------------------------|

-------------------------------------------------|----------------------|------------|------------|

-------------------------------------------------|--8---6---8---8---6---|--8---8>6---|---8---8>6--|

-------------------------------------------------|--5---5---5---5---5---|--7---7>5---|---7---7>5--|

---10>7------------------3---5---3---------------|----------------------|------------|------------|

---------8>10---8---5-----------------5---3---5--|----------------------|------------|------------|

-------------------------------------------------|----------------------|------------|------------|

----------------------------|------------------|----------------------|-------------------------------------------|-----|

----------------------------|------------------|----------------------|-------------------------------------------|-----|

---5^7^5^7^5^7^5^7^5^7------|---5^7^5^7^5^7----|---5^7^5^7^5^7^5^7----|---7^5-------5-----------------------------|--0--|

----------------------------|------------------|----------------------|---------7-------5---3>5---3>5---3>5---5>--|--0--|

----------------------------|------------------|----------------------|---------------------------------------5---|--0--|

----------------------------|------------------|----------------------|-------------------------------------------|-----|

Transcrit par Franck Birambaux

Légende :

^ = Hammer on ou pull off

~ = Bend vers note entre parentheses

> = Slide

Get this song at:  amazon.com sheetmusicplus.com

Share your thoughts

0 Comments found