Mark Knopfler

Mark Knopfler - Golden Heart guitar tab

Golden heart

Guitar 1

|-----3-3-3-| |-----3-3-3-|-----3-3-3-|-----3-----|-----3----|-----3-3-3-|-----3-3-3-|

|---3-3-3-3-| |---3-3-3-3-|---3-3-3-3-|-----3-----|-----3----|---3-3-3-3-|---3-3-3-3-|

|-0---------| |-0---------|-0---------|-----------|----------|-----------|-0---------|

|-----------| X 4 |-----------|-----------|-----------|----------|-----------|-----------|

|-----------| |-----------|-----------|-2-------2-|-3------3-|-----------|-----------|

|-----------| |-----------|-----------|-----------|----------|-3---------|-----------|

|

|Guitar 2

|-----------| |-----------|-----------|-3-5^3-2---|---0-3-0---|----3---------|------|

|-----------| |-----0-----|-----------|-3---------|---1-------|-3>5---0----3-|----0-|

|-----------| |-0^2-0-----|-0-2-0-0---|-0---------|-0---------|---------2^0--|-0----|

|-----------| |-----------|-----------|-----------|-----------|--------------|------|

|-----------| |-----------|-----------|-----------|-----------|--------------|------|

|-----------| |-----------|-----------|-----------|-----------|--------------|------|

|----3----------|---2---------|-----3-3-3-|-----3-3-3-|-----3------|----3------|

|----3----------|---3---------|---3-3-3-3-|---3-3-3-3-|-----3------|----3------|

|---------------|---2---------|-0---------|-0---------|------------|-----------|

|---------------|-4-4---------|-----------|-----------|------------|-----------|

|-3-----3-------|-------3-----|-----------|-----------|-2--------2-|-3-----3---|

|---------------|-------------|-----------|-----------|------------|-----------|

|

|

|----------------|-------------|----------|------------|-3-5-5-3---|---0---3-0-|

|------5---5---3-|-----3-3-----|-----0----|---0--------|-3---------|-----1-----|

|----------------|-------------|----------|-0----2---4-|-0---------|-0---------|

|-3>5----5---5---|-5>4---------|-4>2------|------4---5-|-----------|-----------|

|----------------|-------------|----------|------------|-----------|-----------|

|----------------|-------------|----------|------------|-----------|-----------|

|-----3-3-3-|-----3-3-3-|-----3-------|-----2-|--------2-------|-----3-3-3-|-----3-3-3-|

|---3-3-3-3-|---3-3-3-3-|-----3-------|-----3-|--------3-------|---3-3-3-3-|---3-3-3-3-|

|-0---------|-0---------|-------------|-----2-|--------2-------|-0---------|-0---------|

|-----------|-----------|-------------|-4---4-|--------4-------|-----------|-----------|

|-----------|-----------|-3------3----|-------|-3--------------|-----------|-----------|

|-----------|-----------|-------------|-------|----------------|-----------|-----------|

|

|

|---0^3-----|-------------|-----------|-------|-----------------|

|-3-----0-0-|-----3---0-0-|---1-3^1-0-|---0---|-----1---0-------|

|-------0---|-2^0---0-----|-----------|-2-0---|---0-------2-0-0-|

|-----------|-------------|-2---------|-------|-----------------|

|-----------|-------------|-----------|-------|-----------------|

|-----------|-------------|-----------|-------|-----------------|

|-----3-3-3-|-----3-3-3-|-----3-----|-----3----|-----3-3-3-|-----3-3-3-|

|---3-3-3-3-|---3-3-3-3-|-----3-----|-----3----|---3-3-3-3-|---3-3-3-3-|

|-0---------|-0---------|-----------|----------|-----------|-0---------|

|-----------|-----------|-----------|----------|-----------|-----------|

|-----------|-----------|-2-------2-|-3------3-|-----------|-----------|

|-----------|-----------|-----------|----------|-3---------|-----------|

She was swinging...

|----3----------|---2---------|-----3-3-3-|-----3-3-3-|-----3------|----3------|

|----3----------|---3---------|---3-3-3-3-|---3-3-3-3-|-----3------|----3------|

|---------------|---2---------|-0---------|-0---------|------------|-----------|

|---------------|-4-4---------|-----------|-----------|------------|-----------|

|-3-----3-------|-------3-----|-----------|-----------|-2--------2-|-3-----3---|

|---------------|-------------|-----------|-----------|------------|-----------|

Verse 2:And she took ...

|-----3-3-3-|-----3-3-3-|-----3-------|-----2-|--------2-------|-----3-3-3-|-----3-3-3-|

|---3-3-3-3-|---3-3-3-3-|-----3-------|-----3-|--------3-------|---3-3-3-3-|---3-3-3-3-|

|-0---------|-0---------|-------------|-----2-|--------2-------|-0---------|-0---------|

|-----------|-----------|-------------|-4---4-|--------4-------|-----------|-----------|

|-----------|-----------|-3------3----|-------|-3--------------|-----------|-----------|

|-----------|-----------|-------------|-------|----------------|-----------|-----------|

G D G

Verse 3 : Play like Verse 1

Verse 4 : Play like Verse 2

Chorus:

-----------|-0---0-0-0-0-|---------|-----------|

-3---3-3---|-3---3-3-3-3-|-3---3-3-|---1---1-1-|

-0---0-0---|-2---2-2-2-2-|-0---0-0-|---2---2-2-|

-2-------2-|-0---0-0-0-0-|-2-------|---2---2-2-|

-3-------3-|-------------|-3-------|---0-------|

-----------|-------------|---------|-----------|

-----------|-0---0-0-0-0-|---------|----------|---------------|-----

-3---3-3---|-3---3-3-3-3-|-3---3-3-|------3-3-|------3-3------|---3-

-0---0-0---|-2---2-2-2-2-|-0---0-0-|------0-0-|------0-0------|---2-

-2-------2-|-0---0-0-0-0-|-2-------|----------|---------------|---0-

-3-------3-|-------------|-3-------|-2-3------|-----------2-3-|-----

-----------|-------------|---------|----------|---3-----------|-----

C D C Am

Nothing in the world prepared me for your heart, your heart

C D C

Nothing in the world that I love more, your heart

Am C D

Your heart, your golden heart

G G C G

Your golden heart, your golden heart

G C D

Your golden heart, your golden heart, golden heart

Solo:

-------|-----------------|-3-5-3-|---0---|---0-2-0---|-0^3-------|---------------|

-----0-|-0-1^0-----------|-0-----|---1---|---1-3-1-3-|-----0-1^0-|----3^0--------|

-0^2---|-------2-0-2-0-0-|-0-----|-0-----|-0-------4-|-----------|-2^0-----2^0---|

-------|-----------------|-------|-------|-----------|-----------|-------------2-|

-------|-----------------|-------|-------|-----------|-----------|---------------|

-------|-----------------|-------|-------|-----------|-----------|---------------|

---------------|-------------|-------|-3-3>5-3-2-0-|-2-2>3-|-3---3^0---3^5-3-0-|

---0-----------|---------3-3-|-0-1-3-|-3---------1-|-3-3>5-|---0-----0---------|

-------2-4^2^0-|---2-2>4-4-4-|-0-2-4-|-0-----------|-------|-------------------|

-2---2---------|-----4>5-----|-------|-------------|-------|-------------------|

---------------|-------------|-------|-------------|-------|-------------------|

---------------|-------------|-------|-------------|-------|-------------------|

---3-2-0-0---0-|-------|-------------------|

-3-3-3—1-1^3-1-|-----0-|---1-x-------------|

---------------|-0-2---|-0-0-x-0-2---4^2^0-|

---------------|-------|-------------------|

---------------|-------|-------------------|

---------------|-------|-------------------|

Verse 5 like verse 1

Verse 6 like Verse 2

Chorus

D G G C G C D G

Golden heart, your golden heart, golden heart, heart, heart

Transcrit par Franck Birambaux

Get this song at:  amazon.com sheetmusicplus.com

Share your thoughts

0 Comments found