Mark Knopfler

Mark Knopfler - Dont You Get It guitar tab

Don’t you get it: Mark Knopfler

Harmonic (follow rhythm) #1 #2 #4

-12-12-12-12-12-12-12---……..---|-------------------------|---|-------------|-------------------------|-----------|

-------------------------------|-------------------------|---|-------------|-------------------------|-----------|

-------------------------------|-----5-----5-------5-----|---|-------------|-----5-----5-------5>7-5-|-7^5---7^5-|

-------------------------------|-5-7-5-5-7-5-5-5^7-5-5---|-7-|-7-7^5-------|-5-7-5-5-7-5-5-5^7-5>7-5-|-----------|

-------------------------------|-5-7---5-7---5-5^7---5---|-7-|-7-------7^5-|-5-7---5-7---5-5^7-------|-----------|

-------------------------------|-------------------------|---|-------------|-------------------------|-----------|

#3 tremolo effect tremolo

---------------------------|---|----------------| |---|----------5---|

---------------------------|---|----------------| |---|--------5-----|

-----5-----5---------5-----|---|-7-7------------| #2 |---|-------5------| #1 | #3 | #2 | #4 | Am | #1 | #3 | #2 |

-5-7-5-5-7-5-5-5^7-5-5-----|-7-|-7-7-7^5-----5--| |---|-----7--------|

-5-7---5-7---5-5^7-----5---|-7-|----------7-----| |---|---7----------|

---------------------------|---|----------------| |---|-5------------|

C | G | F | G | X4

G | F | G | F | G | F | G | D | E |

SOLO:

---|-------------|--------------------|---|---------------------------|---------------|---|----------5----5-|----------5---|

---|-------------|--------------------|---|---------------------------|---------------|---|--------5---5----|-5-8~(10)-----|

-7-|-7~(9)~7---5-|-------5-7^5--------|---|-5---------5-----------5-5-|---------------|---|-7~(9)-----------|--------------|

---|-------------|-5^7----------7-5-7-|---|-5---7^5--------7^5----5-5-|-7^5-----------|---|-----------------|--------------|

---|-------------|--------------------|---|-----------7---------7-----|-------7^5---3-|---|-----------------|--------------|

---|-------------|--------------------|---|---------------------------|---------------|---|-----------------|--------------|

-5^7---5----5-------------------------------------------------------------------------------|------------------|---|----------------------------|

-----------5----8^7^5----5-------5---------------------------------------------------------|------------------|---|---------5^6^5----5------|

-------------------------7----7^8----8^7^5-----7-5---------5-5------------4^5^7---5---|-4----------5----|---|-7~(8)----------7----7---|

------------------------------------------------7----5-7^5^7-5-5---7^5^7----------------|----7^5-7-----7-|---|----------------------------|

-----------------------------------------------------------------------------------------------|------------------|---|----------------------------|

-----------------------------------------------------------------------------------------------|------------------|---|----------------------------|

----------------------------|---|------------------------------|----------------------------------|------------------------------------------------------|

-5--------------------------|---|-8---------------------------|----------5-6----5-6^5---------|-8------------8-------------8------------8----------|

---5>4---2-----------5-7-|---|----7~(9)---(9)~7---5-7---|-7^5-7------------------7-5-7-|----10~(12)---- 10~(12)---- 10~(12)-- 10~(12)|

-------------5^7-5^7-----|---|-------------------------------|---------------------------------|-------------------------------------------------------|

----------------------------|---|-------------------------------|---------------------------------|-------------------------------------------------------|

----------------------------|---|-------------------------------|---------------------------------|-------------------------------------------------------|

----------------------------------------------------|-----8---8---10-----------------------------------8--------------------------|---|

-8-----------8-8-8-10---10^8------10-8>17---|---x-8---8------10----------10~(11)-10~(11)----10~(11)~10-8------8-|---|

---10~(12)----------------------10--------------|----------------------12-10---------------------------------------------10----|---|

----------------------------------------------------|---------------------------------------------------------------------------------|---|

----------------------------------------------------|---------------------------------------------------------------------------------|---|

----------------------------------------------------|---------------------------------------------------------------------------------|---|

--------------------------------------------------------|------------------------------|----------------8--------------------------------------------|

-x-8-x-8^6^8---x-8-x-8^6^8---8^10^8^10^8---|-x-8-x-8---x-8-x-8^6^8---|-------10--------10--------12-15-15~(17)~15-13------|

--------------------------------------------------------|-------------------------------|->10-----10--------->12------------------------------14-|

--------------------------------------------------------|-------------------------------|--------------------------------------------------------------|

--------------------------------------------------------|-------------------------------|--------------------------------------------------------------|

--------------------------------------------------------|-------------------------------|--------------------------------------------------------------|

SOLO 2: 3”53

-----------------------|---|-----------------------|---|-----------------------------|---|---------------------|------------------|----------------------------|

-6^3-----------------|---|-----------------------|---|-6^3------------------------|---|-6-x-6^5^3-----3-|-6^3-------6>8-|----------------------------|

-------5---3^5^3----|---|------------3-5^3----|---|------5-3^5^3---------3---|---|----------------5---|-------5^3-------|-3>5-5^3---3-5^3-------|

--------------------5-|---|------3^5----------5-|---|------------------5-3-5-----|---|---------------------|------------------|------------5--------3^5-5|

----------------------|---|---5-------------------|---|------------------------------|---|---------------------|------------------|----------------------------|

----------------------|---|------------------------|---|-----------------------------|---|----------------------|------------------|---------------------------|

----------------------------------------------------------------------|---|---------------------------------------------------|

-8-x-8-x-8-x-8-x-8----8-x------8^6-------------------8----6---|---|-8-x-8-8-----------------------------------------|

------------------------7-------7--------7---5^6^7---7----7------|---|-------------3^5^3-----------3-----5^3---------|

----------------------------------------------------------------------|---|--------------------------3^5----5-------5-3^5-|

----------------------------------------------------------------------|---|-----------------------5---------------------------|

----------------------------------------------------------------------|---|----------------------------------------------------|

-------------------------------------------------|----------5^6^5----|-----------------------------5^3-------------------|-----------------------|

->8---8---8----8-------------8-x-8-----8^6-|-8^6^8-----------8-|----8^6------------------3-------6^3--------6^3-|-8-8--------3----3---|

->7---7------7-----------------------7--------|----------------------|-7-------7---5-7-5>3-----------------5^3-------|-7-7---3^5---5------|

---------------------7^8^9--------------------|----------------------|-----------------------------------------------------|-----------------------|

-------------------------------------------------|----------------------|-----------------------------------------------------|-----------------------|

-------------------------------------------------|----------------------|-----------------------------------------------------|-----------------------|

-----------------------------------|--------------------------------------------|-------------------|---------------------------|

----8^6---------------------------|-8-x-8-x-8-x-8--------------------------|-------------------|---x-x-x-x-6^3-----3---|

-5-------7-5^7-6-5-3^5---3----|-------------------5-5-7^5---3^5^3-----|------------5^3---|-------------------5------|

---------------------------------5-|-----------------------------------------5-|----3^5-3------5-|---------------------------|

------------------------------------|-------------------------------------------|-5-----------------|---------------------------|

------------------------------------|-------------------------------------------|--------------------|---------------------------|

-----------------3------------------3----------3^6^3---------------------------------------|--------------------------------------------------------|

-3^6-3-6~(8)---- 3^6-3-6~(8)----- 3-6-3----------3-6^5-3----------------------------|-8-x-8-x-8-x-8^6-----8-8---8-x-8---10^8--------|

---------------------------------------------------------------------3^5-3^5-3-------5-3---|---------------------7—7-7-------------------10^7-|

-----------------------------------------------------------------------------------5-5-5-3---|--------------------------------------------------------|

-----------------------------------------------------------------------------------------------|--------------------------------------------------------|

-----------------------------------------------------------------------------------------------|--------------------------------------------------------|

-----------|----------3^5^3---------------|

-8^6-------|---6~(8)----------6---3---8---|

-------7---|--------------------------7---|

-----------|------------------------------|

-----------|------------------------------|

-----------|------------------------------|

Transcrit par Franck Birambaux

Get this song at:  amazon.com sheetmusicplus.com

Share your thoughts

0 Comments found