Mark Knopfler

Mark Knopfler - Boom Like That guitar tab

There are 3 solo's in this song. These are all of them.

The reason i didn't write out the whole song is because the previous tabs people

already had it down very well but were a little hazy on the solos. So here they are.

this first solo starts around 2:17, All of the solos have the same intro which is this:

e-----------------------------------------------------------|

B-----------------------------------------------------------|

G--10-------------------------------------------------------|

D----12--10-------------------------------------------------|

A------13-----10--------------------------------------------|

E-----------13--13-10-8-13-10-6-----------------------------|

First solo:

e----------------------------------------------------------------------------|

B----------------------------------------------------------------------------|

G-------12--10(b12)-12h14p12-10--------------10----10----10-----10-14-10h12~-|

D--10/12--12-------------------12-----10-10h12-10h12-10h12-10h12-------------|

A--------------------------------13-10---------------------------------------|

E----------------------------------------------------------------------------|

e---------------------------------------------------------------------------|

B---------------------------------------------------------------------------|

G-14b15-14-10/12-10h12-10-12-10-------10---12-------------------------------|

D------------------------------12-------12-12-10-10h12--10------------------|

A--------------------------------13-10----------13----13--10----------------|

E---------------------------------------------------------------------------|

Second Solo starts around 3:23:

e-----------------------------------------------------------------------|

B-----------------------------------------------------------------------|

G------12-10-12-10-------------10--10-15-12-12h14b15-14-12--10-12-10----|

D-11/12-----------12------10/12--12-----------------------12--------12--|

A-------------------13-10--------------------------------------------13-|

E-----------------------------------------------------------------------|

Continued Second solo:

e-----------------------------------------------------------------------|

B-----------------------------------------------------------------------|

G-----------------------------------------------------------------------|

D----------------10b12-12p10--------------------------------------------|

A--10-12-10-10-12-----------12-10---------------------------------------|

E-13--------------------------------------------------------------------|

Third and last solo starts around 4:59

e---------------------------------------------------------------------------|

B---------------------------------------------------------------------------|

G-10-12/15-14-12-10--10h12-----------------------------12-14-15-14-12-10----|

D------------------12-----12-10-----12-12~-12-10------------------------12--|

A------------------------------13-10------------13-8h10---------------------|

E---------------------------------------------------------------------------|

Continued Third solo:

e----------------------------------------------------------------------|

B----------------------------------------------------------------------|

G-10-12h14p12--12------------10-----10-----10-----10-14-10h12---10-12~-|

D------------12--12------10h12-10h12--10h12--10h12------------12-------|

A------------------13-10-----------------------------------------------|

E----------------------------------------------------------------------|

Continued Third solo:

e-----------------------------------------------------------------------|

B---------------------------------13-15~-13-----------------------------|

G-14p12-10---10-12-14p12-10-15-12~---------15p14p12~-15-14-10/12--10h12-|

D---------12----------------------------------------------------12------|

A-----------------------------------------------------------------------|

E-----------------------------------------------------------------------|

Continued Third solo: starts fading...

e-------------------------------------------------------------------------|

B---------------------------------------------13b15~~~15p13---------------|

G-15p12p10---10h12-14p12~-10h12-15p12p10h12~~~-------------15p12-12-14b15-|

D---------12--------------------------------------------------------------|

A-------------------------------------------------------------------------|

E-------------------------------------------------------------------------|

Continued Third solo:

e-------------------------------------------------------------------------|

B-------------------------------------------------------------------------|

G-14b15r14b15r14b15-14p12p10-----10h12~10h12p10-/15p12~~~~~---------------|

D---------------------------12-12-----------------------------------------|

A-------------------------------------------------------------------------|

E-------------------------------------------------------------------------|

/ = slide up

\\ = slide down (not used)

h = hammer on

p = pull off

b = bend

r = release

x = muted string (not used)

t = tap (with finger or pick)(not used)

~ = vibrato

Congratulations! The End. This sounds accurate with a standard tuning, if you find any

or things I forgot to put in please email me at webmaster at tabs-database.com.com or just put it

as a comment. Thank you! Enjoy!!Added by tabs-database.com and our distinguished partners

Get this song at:  amazon.com sheetmusicplus.com

Share your thoughts

0 Comments found