Mark Knopfler

Mark Knopfler - Baloney Again guitar tab

Intro:

Bm Bm/A

|-------------------------------------------|

|-----------3---------------------3---------|

|---------------4-----------------------4---|

|--------4--------------------4-------------|

|---2--------------------0------------------|

|-------------------------------------------|

G F#

|-------------------------------------------|

|----------3---------------------2----------|

|--------------4---------------------3------|

|-------------------------------------------|

|-------2--------------------1--------------|

|--3---------------------2----------------2-|

Bm7 rythm

|---------------|

|-----7-7-------|

|-----7-7-------|

|-------7-7-----|

|---------------|

|-7----------0>7|

Bm7

We don't eat in no white restaurants

We're eating in a car

G Bm7

Baloney again, baloney again

We don't sleep in no white hotel bed

G F#

We're sleeping in a car, baloney again

Bm7

You don't strut around in these country towns

Bm7/A

You best stay in the car

Bm7/Ab

Look on ahead don't stare around

Bm7/G

You best stay where you are

Bm7

You're a long way from home, boy

G F#

Don't push your luck too far

Bm7 Bm7/G Bm7

Baloney again

Twenty-two years we've sung the word

since nineteen thirty-one

Amen, I say amen

Now the young folk want to praise the Lord

With guitar, bass and drums, amen

Well I'll never get tired of Jesus

But it's been a heavy load

Carrying His precious love

Down a long dirt road

We're a long way from home

Just let's pay the man and go

Baloney again

D

The Lord is my sheperd

Bm Em A

He leadeth me in pastures green

He gave us this day

D

Our daily bread and gasoline

Go under the willow

Bm Em A

Park her up beside the stream

Shoulders for pillows

D

Lay down your head and dream

A

Shoulders for pillows

A G Bm G F#

Lay down your head and dream

Get this song at:  amazon.com sheetmusicplus.com

Share your thoughts

0 Comments found