Mark Knopfler

Mark Knopfler - Are We In Trouble Now guitar tab

Are we in trouble now

intro:

D A7 D A7

It wasn't just the

D G D

Music, it wasn't just the wine

D

Some other kind of magic

Em7 A7

Was sending shivers up my spine

D D7 G F#m Em

Then I was falling, and I fell for you and how

D A7 D A7

Darling are we in trouble now

2. They say we're :(same chords than verse 1)

SOLO 1:

--------------|--------------------|-----------|-|-------------------|---------|

--------------|--------------------|-----------|-|-----------------7-|-8^7-----|

---7^9-9~(11)-|-~9~(11)~9~(11)~9^7-|-9-7^9^7---|-|------7^9-9~(11)---|-----9^7-|

-7------------|--------------------|---------7-|-|----7--------------|---------|

--------------|--------------------|-----------|-|->9----------------|---------|

--------------|--------------------|-----------|-|-------------------|---------|

-----------------|-------------------|-|-------|

-------7^8^7-----|-10----------------|-|-------|

-9~(11)------9^7-|---9~(11)~9~(11)~9-|-|-9^7^6-|

-----------------|-------------------|-|-------|

-----------------|-------------------|-|-------|

-----------------|-------------------|-|-------|

____

|3

G A7 D

When we'd talk it over

Bm G A7 D

Love was a cry from a distant shore

G A7 D

Then we found each other

Bm G A7

And all that we'd been searching for

4. And I'm done.....(same chors than verse 1)

G Em D A7 D - - -

Darling, are we in trouble now

SOLO 2 :

G A7 D Bm G A7 D

G A7 D Bm G A7 repeat to fade

-------|-----------|-|-------------|-------2^3^2-|-|---|---------------|---------------|

-------|-3-3>5-5>7-|-|-5~(7)-5-3-3-|-0^3^5-------|-|-8-|-7^8^7>5-5>7-7-|-5~(7)~5^3^5-3-|

-4^2-4-|-----------|-|-------------|-------------|-|---|---------------|---------------|

-------|-----------|-|-------------|-------------|-|---|---------------|---------------|

-------|-----------|-|-------------|-------------|-|---|---------------|---------------|

-------|-----------|-|-------------|-------------|-|---|---------------|---------------|

-------|-----|-----|-----|-------2-5-2-----|-----2-0-------|----------|---------------|

-0^3^5-|-----|-3>5-|-7-7-|-5~(7)-------5-3-|-0^3-----3>5>7-|-7^10-8-8-|-7~(8)~7^5-7-7-|

-------|-----|-----|-----|-----------------|---------------|----------|---------------|

-------|-----|-----|-----|-----------------|---------------|----------|---------------|

-------|-----|-----|-----|-----------------|---------------|----------|---------------|

-------|-----|-----|-----|-----------------|---------------|----------|---------------|

-------------|------------2-|-------|-------5-2-|--------7--------|-----------------|

-5~(7)~5^3^5-|-2-2-3-5-5----|-3^2---|-3>5---3-3-|-10~(12)---7^5---|-5~(7)~5^3-5-7-7-|

-------------|---2-2-2-2----|-----4-|-----------|---------------7-|-----------------|

-------------|--------------|-------|-----------|-----------------|-----------------|

-------------|--------------|-------|-----------|-----------------|-----------------|

-------------|--------------|-------|-----------|-----------------|-----------------|

---5-----|---------------|-------2^0-----------|-|-------------------|-----|----------

-7---8-8-|-7^8^7-5-3^5>7-|-5---3-----3-5-7-7-5-|-|---10~(12)-(12)—10-|-8-7-|-10>12-10-

---------|---------------|---4-----------------|-|-7-----------------|-----|----------

---------|---------------|---------------------|-|-------------------|-----|----------

---------|---------------|---------------------|-|-------------------|-----|----------

---------|---------------|---------------------|-|-------------------|-----|----------

-------|-------------|------------------|-|--------7-9-7--------|---------|---------10-|

-7-----|-------7-8-7-|-7-10-8-8-7^8^7^5-|-|-10~(12)------10-7---|-7^8^7---|-13~(15)----|

---7---|-7-7>9-------|------------------|-|-------------------7-|-------9-|------------|

-----9-|-------------|------------------|-|---------------------|---------|------------|

-------|-------------|------------------|-|---------------------|---------|------------|

-------|-------------|------------------|-|---------------------|---------|------------|

-12-9-10-12-10-9----------------|--------7-9^7-|------------|---------------

-----------------12-10-------10-|-10~(12)------|-10-8-7^8^7-|-5^7-5^7^5-----

-----------------------12^11----|--------------|------------|-----------7--- fade out

--------------------------------|--------------|------------|---------------

--------------------------------|--------------|------------|---------------

--------------------------------|--------------|------------|---------------

Transcrit par Franck Birambaux

Get this song at:  amazon.com sheetmusicplus.com

Share your thoughts

0 Comments found