Mark Knopfler

Mark Knopfler - A Night In Summer Long Ago guitar tab

A night in summer long ago

Accordage en DGDGBD et capodastre à la 2e case !

Guitar tuned in DGDGBD and capo at the 2nd fret !

INTRO

D-||----------------0-|-0-------|-----------------|------------------|

B-||----------0---0---|---0---5-|-5-----3-5---3-5-|-5-3------1-0-----|

G-||-0----0-2-0-------|-----0---|-----5-----------|-----5-4------2-0-|

D-||----0-------0-----|---------|---5-------5-----|------------------|

G-||-0----------------|-4-------|-5---------------|-5--------2-------|

D-||------------------|---------|-----------------|------------------|

|________1°________| |__________2°_________|

------------0------|| ------0---|-----------||

-------0-1---------|| ----------|-----0-1-0-||

---0-2--------2----|| ---2----0-|-0-2-----0-||

-4--------------0--|| -4--------|---------0-||

-------------------|| ----------|-0---------||

-0-----------------|| -0--------|-----------||

||---------0-------|-----0---|------------------|------------------|-----0---------|

||-----0-1---0-----|---------|-------3-5--------|------5-3---------|-------0-1-----|

:||-0-2---------0---|---0---0-|-----5--------5---|----------5-4-5---|---2---------2-|

||---------------0-|---------|---5--------5---5-|---5------------5-|-4---------0---|

||-0---------------|-4-------|-5----------------|-5----------------|---------------|

||-----------------|---------|------------------|------------------|-0-------------|

Verse 1:My lady may I have this dance forgive a knight who knows no shame

Verse 2:Now these boots may take me where they ll though they may never shine like this

Verse 3:Instrumental

Verse 4:Then I did lead you from the hall and we did ride upon the hill

Verse 5:Instrumental

------------------|-0-----|-----------------|------------------|-----0---|

-----0-1--0---0-1-|---0---|-5-3-------3-5-3-|-5-3------1-------|---------|

-0-2--------0-----|-----0-|-----5---5-------|-----5-4----0---0-|---2-----|

------------------|-------|-------5---------|--------------2---|-4-----4-|

-0----------------|-4-----|-5---------------|-5--------2-------|---------|

------------------|-------|-----------------|------------------|-0-------|

Verse 1:My lady may I have this dance and lady may I know your name

Verse 2:There is no knight I would not kill to have my lady’s hand to kiss

Verse 3:

Verse 4:Away beyond the city wall and sure you are my lady still

Verse 5:

------------------|

-----0--------0---|

-0-2---2-0------0-|

-----------0------|

-0----------------|

------------------|

--------------0----|-----------------|-------------------|-----0----------0-|

-----0-------------|-------3-5-3-----|------5---1-0-1----|------------------|

---0---0---0-----0-|-----5-------5---|--------5----------|---2---2------2---|

-------------------|---5-----------5-|---5-------------2-|-4----------4-----|

-0-------4---------|-5---------------|-5--------2--------|------------------|

-------------------|-----------------|-------------------|-0--------0-------|

V1:you danced upon a soldier’s arm and I felt the blade of love so keen and when you

V2:yes and they did take me through the hall to leave me not one breath from you

V3:

V4:a night in summer long ago the stars were falling from the sky

V5:

-------0-------0-|-------0-|-----------------|------------------|-0--------|

-----0---0---0---|-----0---|-------3-5-------|-------5--------3-|----------|

-0-2-------0-----|---0-----|-----5-----5---5-|-----5--------0---|---2------|

-----------------|---------|---5---------5---|---5--------2-----|-----4----|

-0---------------|-4-------|-5---------------|-5--------2-------|----------|

-----------------|---------|-----------------|------------------|--------0-|

V1:smiled you did me harm and I was drawn to you my queen

V2:and they fell silent one and all and you could see my heart was true

V3:

V4:and still my heart I have to know why do you love me lady why

V5: |-to coda..

------------------||

-----0-1-0----0---||

-0-2------------2-||:

------------0-----||

-0----------------||

------------------||

Coda :

-------------------|---------|---|

-5-3------1----0---|---------|-0-|

-----5-4---------0-|-2-----0-|-0-|

------------2------|---4-0---|-0-|

-5--------2--------|---------|-0-|

-------------------|-0-------|---|

Transcrit par Franck Birambaux

Copyright www.DireStraitsTabs.fr.st ©

Get this song at:  amazon.com sheetmusicplus.com

Share your thoughts

0 Comments found