Machine Head

Machine Head - Wipe The Tears guitar tab

Machine ***in’ Head

Wipe Away the Tears

Can’t work out solos!

Tuning: Drop B

VERSE

|-----------------------------------------------------------------|

|-2----------3--------------------5----------3--------------------|

|-----------------------------------------------------------------|

|-----2----------2--------3---2-------2----------2--------3---2---|

|-----------------------------------------------------------------|

|-2----------3--------------------5----------3------------8---8---|

|---------------------------------------------------------8---8---|

|-----2----------2--------3---2-------2----------2--------8---8---|

CHORUS

|-----------------------------------------------------------------------------|

|-2---0------3---0--------------------5---0------3---0------------|

|-2---0------3---0--------------------5---0------3---0------------------------|

|-2---0------3---0--------2--2--2--2--5---0------3---0------------------------|

|-----------------------------------------------------------------|

|-2---0------3---0--------------------5---0------3---0------------------------|

|-2---0------3---0--------------------5---0------3---0------------------------|

|-2---0------3---0--------2--2--2--2--5---0------3---0------------------------|

MIDDLE

|------------------------------------------------------------------------|

|-9---------------------------------9------------------------------------|

|------------------------------------------------------------------------|

|-7---------------------------------7------------------------------------|

|------------------------------------------------------------------------|

|------------------------------------------------------------------------|

|-5---------------------------------5------------------------------------|

|------------------------------------------------------------------------|

|-3---------------------------------3------------------------------------|

|------------------------------------------------------------------------|

|------------------------------------------------------------------------|

|-9---------------------------------9------------------------------------|

|------------------------------------------------------------------------|

|-7---------------------------------7------------------------------------|

|------------------------------------------------------------------------|

|------------------------------------------------------------------------|

|-5--------------------------------/12------------------11---------------|

|------------------------------------------------------------------------|

|-3--------------------------------/10-------------------9---------------|

|------------------------------------------------------------------------|

|------------------------------------------------------------------------|

|-9--------------------------------/12---11------------------------------|

|------------------------------------------------------------------------|

|-7--------------------------------/10----9------------------------------|

|------------------------------------------------------------------------|

|-------------------------------------------------------------------------|

|-12------------------------------/16------14/1614-----12----11----12----|

|-------------------------------------------------------------------------|

|-10------------------------------/14------12/1412-----10-----9----10----|

|-------------------------------------------------------------------------|

|------------------------------------------------------------------------|

|-9--------------------------------/12---11------------------------------|

|------------------------------------------------------------------------|

|-7--------------------------------/10----9------------------------------|

|------------------------------------------------------------------------|

|------------------------------------------------------------------------|

|-12-------------------------------/14---16---14--------12-------11------|

|------------------------------------------------------------------------|

|-10-------------------------------/12---14---12--------10--------9------|

|------------------------------------------------------------------------|

|-10--10--------------10--10--------------------------|

|-10--10--x--x--x--x--10--10--x--x--x--x--x--x--x--x--|

|--8---8--x--x--x--x---8---8--x--x--x--x--x--x--x--x--|

|---------x--x--x--x----------x--x--x--x--x--x--x--x--|

|-10--10--------------10--10----7--7--7--7--7--7--7--7--|

|-10--10--x--x--x--x--10--10----7--7--7--7--7--7--7--7--|

|--8---8--x--x--x--x---8---8----5--5--5--5--5--5--5--5--|

|---------x--x--x--x------------------------------------|

OUTRO

|---------------------------------------|

|-10-----9-----10-----9-----------------|

|-10-----9-----10-----9-----------------|

|--8-----7------8-----7-----------------|

|-----0-----0------0--------2--2--2--2--|

|---------------------------------------------------------------------|

|---------------------------------------------------------------------|

|-8-----5-----8-----5-----6----6----8-----5-----8-----5-----0----0----|

|-8-----5-----8-----5-----6----6----8-----5-----8-----5-----0----0----|

|-8--0--5--0--8--0--5--0--6----6----8--0--5--0--8--0--5--0--0----0----|

Get this song at:  amazon.com sheetmusicplus.com

Share your thoughts

0 Comments found