Machine Head

Machine Head - White Knuckle Blackout guitar tab

Machine Head � White-Knuckle Blackout

Tabbed By Bloodtaster

P.m = Palm Mute

^ = Bend

Tuning low to high: B, F#, B, E, G#, C#

Intro Riff / Chorus

|--------------------------------------------------------------|

|--------------------------------------------------------------|

|--------------------------------------------------------------|

|-----------------------------------------------------------4--|

|-----------------------------------------------------------4--|

|--5^--0--0--3--5--5^--0--4--0--3--5^--0--0--3--5--5--3--5--4--|

Verse

|--10------11--------|

|-------9--------10--|

|--------------------|

|--------------------|

|--------------------|

|--------------------|

|----------11--13--11---------------11--|

|-----11-----------------11-----11------|

|--8--------------------------8---------|

|---------------------------------------|

|---------------------------------------|

|---------------------------------------|

Chorus

Verse

Chorus

|---------|

|---------|

|---------|

|--0------|

|--0------|

|--0------|

Riff 4

|----------------|

|--9------10-----|

|------7------8--|

|----------------|

|----------------|

|----------------|

|------------------------------------|

|--9---------------10----------------|

|----7-7-7-7-7-7-7----8-8-8-8-8-8-8--|

|------------------------------------|

|------------------------------------|

|------------------------------------|

P.m - - - - - - - - - - - - - - -

|------------------------------------|

|--9---------------10----------------|

|----7-7-7-7-7-7-7----8-8-8-8-8-8-8--|

|------------------------------------|

|------------------------------------|

|------------------------------------|

|--------------------------------------|

|--------------------------------------|

|--8-----------------9-----------------|

|--6--7-7-7-7-7-7-7--7--8-8-8-8-8-8-8--|

|-----5-5-5-5-5-5-5-----6-6-6-6-6-6-6--|

|--------------------------------------|

|------------------------------------|

|------------------------------------|

|-------------------2----------------|

|--6-0-0-0-0-0-0-0--2-1-1-1-1-1-1-1--|

|--6-0-0-0-0-0-0-0--0-1-1-1-1-1-1-1--|

|--6-0-0-0-0-0-0-0----1-1-1-1-1-1-1--|

|----------------|

|----------------|

|---------2------|

|--6-0----2-1----|

|--6-0----0-1----|

|--6-0------1----|

|-------|

|-------|

|-------|

|--6-0--|

|--6-0--|

|--6-0--|

Get this song at:  amazon.com sheetmusicplus.com

Share your thoughts

0 Comments found