Machine Head

Machine Head - Violate guitar tab

MACHINE HEAD

VIOLATE

The More Things Change...

Tabbed by Arnaud Pecoste

Riff A:

|---------------------------------------|

|---------------------------------------|

|---------------------------------------|

|---------------------------------------|

|----0-1-0---1/6-6-0---0-3_4-3-0-1-0----|

|----0-1-0---1/6-6-0---0-3_4-3-0-1-0----|

Fill B:

|-----------|----------|-----------|----------|

|-----3-----|----3-----|----3------|----------|

|---1---2---|--2---2---|--2---1----|----------|

|-----------|----------|--------3--|----------|

|-----------|----------|-----------|----------|

|-----------|----------|-----------|----------|

Fill C:

|------------|------------|

|------------|------------|

|------------|------------|

|------------|------------|

|------------|------------|

|----5-5-5-5-|-6-6-6-6----|

Riff D:

|-------------------------------------------------------------|

|-------------------------------------------------------------|

|-------------------------------------------------------------|

|------------------------------6-5-4--4--4-4------------------|

|---0---0-3---0-1---0-5_6--0---4-3-2--2--2-2---5-6---5-5--6---|

|---0---0-3---0-1---0-5_6--0-------------------5-6---5-5--6---|

Riff E:

|-----------------------------------|-----------------------------------|

|-----------------------------------|-----------------------------------|

|-----------------------------------|-----------------------------------|

|--7-6-7-8---7-6-7-8----------------|--7-6-7-8---7-6-7-8----------------|

|--5-4-5-6---5-4-5-6----------------|--5-4-5-6---5-4-5-6----------------|

|----------------------0-0-0-0-0-0--|----------------------0-0-4-4-3-3--|

Riff F:

|-------------------------------------|-----------------------------------|

|-------------------------------------|-----------------------------------|

|-------------------------------------|-----------------------------------|

|-------------------------------------|------------------5/6--------------|

|--5_6--------------------------------|--5_6-------------3/4--------------|

|--5_6-0-0-0-0-0-0-0-0-0-0-0-0-0-0-0--|--5_6-0-0-0-0-0-0-----0-0-0-0-0-0--|

|-------------------------------------|----------------------------------|

|-------------------------------------|----------------------------------|

|-------------------------------------|----------------------------------|

|-------------------------------------|--5---------------5/6-------------|

|--5_6--------------------------------|--3---------------3/4-------------|

|--5_6-0-0-0-0-0-0-0-0-0-0-0-0-0-0-0--|-----0-0-0-0-0-0-----0-0-0-0-0-0--|

Riff G:

|-----------------------------------|-----------------------------------|

|-----------------------------------|-----------------------------------|

|-----------------------------------|-----------------------------------|

|-----------------------------------|-----------------------------------|

|--5-5-5-5-5-5-5-5-5-5-5-5-5-5-5-5--|--6-6-6-6-6-6-6-6-6-6-6-6-6-6-6-6--|

|--5-5-5-5-5-5-5-5-5-5-5-5-5-5-5-5--|--6-6-6-6-6-6-6-6-6-6-6-6-6-6-6-6--|

Riff H:

|-------------------|

|-------------------|

|-------------------|

|---7---8---9--10---|

|---5---6---7---8---|

|-------------------|

Riff I:

|--------------------|

|--------------------|

|--------------------|

|--------------------|

|---0---1---[2]--3---|

|---0---1---[2]--3---|

Get this song at:  amazon.com sheetmusicplus.com

Share your thoughts

0 Comments found