Machine Head

Machine Head - Violate bass tab

Violate

\ = slide down

/ = slide up

~ = vibrato (the more there is the longer the vibrato)

PM........ = palm Mute

^ = bend

^______ = bend and hold

[2] = artificial harmonic

Tuned down huge amounts of tones and semitones

(probably)Drop D tuning.Verse Riff:

PM............................

G:-------------------------------------

D:-------------------------------------

A:-------------------------------------

D:-0--1--/6-6-0--0-/4-3--0-1-0-1-------

Chorus: Play four times

G:----------------------------------------------------------------

D:----------------------------------------------------------------

A:----------------------------6-5-4-------------------------------

D:-0---0--3--3--1--0--5--6--0-------(x)-(x)---5--5--6~~-6~~-5~-6~-

VerseChorusMiddle 8 Riff: Play 4 times

PM..... PM...........

G:-----------------------------------------------------------------

D:-----------------------------------------------------------------

A:-5-4-5-5/6~--5-4-5-5/6~-------5-4-5-5/6~--5-4-5-5/6~-------------

D:------------------------00000------------------------00--33--11--

After last time:

G:------

D:------

A:------

D:--0---

Bridge Riff A: Play twice with one guitar then six times with both.

G:-------------------------------------------

D:-------------------------------------------

A:-------------------------------3/4---------

D:-5h6-00000000000000-5p6-000000-----000000--

Bridge Riff B: Play four times.

G:-------------------------------------

D:-------------------------------------

A:-------------------------------------

D:-5-5555555555555-6-6666666666666-----

Bridge Riff :C

G:-------------------------------------

D:-------------------------------------

A:-------------------------------------

E:-0-1-2-3--0-1-2-3--0-1-2-3--0-1-2-3--

Bridge Rif D: One guitar only

G:-------------------------------------------------------------

D:-------------------------------------------------------------

A:-------------------------------------------------------------

D:-0-1-[2]^-3--0-1-[2]^-3--0-1-[2]^-3--0-1-[2]^-3--0-1-[2]^-3--

End:

G:-------------------------------------

D:-------------------------------------

A:-------------------------------------

E:-0-1-2-3--0-1-2-3--0-1-2-3--0-1-2-3--Keep it Heavy.

Get this song at:  amazon.com sheetmusicplus.com

Share your thoughts

0 Comments found