Machine Head

Machine Head - Trephination guitar tab

"Trephination" by Machine Head on "Supercharger"

Drop-B Tuning

Intro and verse (Played on bass)

E------------------------------------------------

B------------------------------------------------

F#-----------------------------------------------

B--0-0-0-0-1--0-0-0-0-1--0-0-0-0-1---0-0-3--0-0-3

Verse 1

C#-----------------------

G#-----------------------

E---5--7-7-7-----5--7-7-7

B------------------------

F#--3--5-5-5-----3--5-5-5

B------------------------

Verse 2 (Before Chorus 1)

C#-----------------------

G#-----------------------

E---5--7-7-7-8---5--7-7-7

B------------------------

F#--3--5-5-5-6---3--5-5-5

B------------------------

Chorus 1

C#--------------------------------------------

G#--------------------------------------------

E---------------------------------------------

B---0-0-0-1--0-0-0-1--0-0-0-0-1---0-0-3--0-0-3

F#--0-0-0-1--0-0-0-1--0-0-0-0-1---0-0-3--0-0-3

B---0-0-0-1--0-0-0-1--0-0-0-0-1---0-0-3--0-0-3

Chorus 2 ("Trephination! Trephination!")

C#--------------------

G#--------------------

E---------------------

B---------------------

F#--12-----0--12-----0

B---12s3s6-0--12s3s6-0

Interlude (Guitar 1)

C#-------------------------------

G#-------------------------------

E--------------------------------

B---0-0-0--0-0-0--0-0-0---6-6-6-6

F#--0-0-0--0-0-0--0-0-0---6-6-6-6

B---0-0-0--0-0-0--0-0-0---6-6-6-6

PM. - - - - - - - - -

Interlude (Guitar 2)

C#-------------------

G#-------------------

E--------------------

B------5-6-7---------

F#------------8-7-6-7

B---0----------------

Enjoy

-wicksickles-

Get this song at:  amazon.com sheetmusicplus.com

Share your thoughts

0 Comments found