Machine Head

Machine Head - The Burningg Red guitar tab

Band: Machine head

Song: The burning red

Album: The burning red

difficulty: V/easy

tabbed by: seagull

Guitar Verse-1

e-|------------------------------------------------------|

B-|------8--------------8--------------5--------------5--|

G-|------------------------------------------------------|

D-|----9--------------7--------------5--------------4----|

A-|--7--------------5--------------3--------------2------|

E-|------------------------------------------------------|

---------------------------------------

Guitar Verse-2

e-|-------------------------------------------------------------

B-|-------------------------------------------------------------

G-|---7---7--7-7-7-7-7----5---5--5-5-5-5-5----3---3--3-3-3-3-3--

D-|---7---7--7-7-7-7-7----5---5--5-5-5-5-5----3---3--3-3-3-3-3--

A-|---5---5--5-5-5-5-5----3---3--3-3-3-3-3----1---1--1-1-1-1-1--

E-|-------------------------------------------------------------

--------------------|

--------------------|

--2---2--2-2-2-2-2--|

--2---2--2-2-2-2-2--|

--0---0--0-0-0-0-0--|

--------------------|

---------------------------------------

Guitar Verse-3

e-|-------------------------------------------------------------

B-|-------------------------------------------------------------

G-|---4---4--4-4-4-4-4----6---6--6-6-6-6-6----7---7--7-7-7-7-7--

D-|---4---4--4-4-4-4-4----6---6--6-6-6-6-6----7---7--7-7-7-7-7--

A-|---2---2--2-2-2-2-2----4---4--4-4-4-4-4----5---5--5-5-5-5-5--

E-|-------------------------------------------------------------

--------------------|

--------------------|

--9---9--9-9-9-9-9--|

--9---9--9-9-9-9-9--|

--7---7--7-7-7-7-7--|

--------------------|

Play order (Guitar):

Verse-1 x2

Verse-1 x3 (Vocals Verse-1 start up here)

Verse-2 x2 (Vocals Chorus-1 start up here)

Verse-1 x1

Verse-1 x3 (Vocals Verse-2 start up here)

Verse-2 x2 (Vocals Chorus-2 start up here)

Verse-3 x1 (Vocals Verse-3 start up here)

Verse-2 x4 (a whole heap of "oooooo's" start up here)

Lyrics and timeing:

Key- ^=place to start up part in curent guitar verse (eg:

e-|------------------------------------------------------|

B-|------8--------------8--------------5--------------5--|

G-|------------------------------------------------------|

D-|----9--------------7--------------5--------------4----|

A-|--7--------------5--------------3--------------2------|

E-|------------------------------------------------------|

^(1st part) ^(2nd part) ^(3rd part) ^(forth part)

This shouldn't be too hard to work out

---------------------------------------

Vocals verse-1 (play guitar verse-1)

I see the sun begin to rise

^ ^ ^

And I'm wounded too

^ ^

I've seen the world from painted eyes

^ ^

That I'm crying through

^ ^

I watch the darkness hit the tides

^ ^

And confide in...

^

---------------------------------------

Vocals Chorus-1 (play guitar verse-2)

Hold On I'm falling

^ ^

Can't breathe anymore

^ ^

And the ocean has opened

^ ^

These scars need to heal

^ ^

---------------------------------------

Vocals verse-2 (play guitar verse-1)

Caress the needle prick in my eye

^ ^ ^

The tears fell like rain

^ ^

I've rode the phoenix as she glides

^ ^

And I've gone insane

^ ^

I've seen the light of suicide

^ ^

And I'm dying

^

---------------------------------------

Vocals Chorus-2 (play guitar verse-2)

Hold On I'm falling

^ ^

Can't breathe anymore

^ ^

And the ocean has opened

^ ^

These scars need to heal

^ ^

Hold on I'm falling, can't reach... reach...

^ ^ ^ ^

---------------------------------------

Vocals Verse-3 (play guitar verse-3)

Colder and colder

^ ^

Just hold onto me...

^ ^

Comments:

This is a very easy song to play. This is a very good song for beginners to learn if they

want to learn the guitar, but want to start with something with more balls then the regular

stuff

they start you out on. If you are a beginner and want to learn this song, be careful of the

first

guitar verse. It can be kind of hard to master at first. Just keep at it! If you find it too

hard,

then try this:

e-|------3--------------3--------------0--------------0--|

B-|------------------------------------------------------|

G-|----4--------------2--------------0-------------------|

D-|--2--------------0-------------------------------4----|

A-|--------------------------------3--------------2------|

E-|------------------------------------------------------|

This alternative verse is not the right way to do it, but it sounds pretty good (ps: I learnt

this version of verse-1 a fair while ago off of a different tab, but i cant remember where,

so

if the tabber of this tab happens to see it, Thanx.)

I did not include Guitar 2, because this *IS* a beginners. any suggestions or complaints

e-mail

me at seagull_1232000@yahoo.com.au (address it as subject: The Burning Red Tab Sugestion/Comment).

Thanx to all that decide that they want to use it.

Get this song at:  amazon.com sheetmusicplus.com

Share your thoughts

0 Comments found