Machine Head

Machine Head - The Blood The Sweat The Tears guitar tab

Date: Wed, 25 Apr 2001 02:37:53 -0400

From: "dan duncan"

Subject: m/machine_head/the_blood_the_sweat_the_tears.tab

Machine Head- The Blood, The Sweat, The Tears (solo)

tabbed by orgasmatron

|-----------------------------------------------------------|

|---------------------------9---------8---------------------|

|--9-10-9-10-9-10-9-10-9-10---10-9-10---10------------------|

|-----------------------------------------------------------|

|-----------------------------------------------------------|

play this x2

|-----------------------------------------------------------|

|--9b(12)-9b(12)-9b(11)-----9b(11)-9------------------------|

|------------------------------------11-10-11-10-8----------|

|-----------------------------------------------------------|

|-----------------------------------------------------------|

|-----------------------------------------------------------|

|--11-9-----------------------------------------------------|

|-------12-11-12-11-9-11-9----------------------------------|

|--------------------------10-10-11-10-10-11-10-------------|

|-----------------------------------------------12-14~------|

|-----------------------------------------------------------|

|-----------------------------------------------------------|

i'm not too sure about this part

|-----------------------------------------------------------|

|-----------------------------------------------------------|

|-----------------------------------------------------------|

|--14------12-14-10------9------7-7b(9)---5\2----------2-0--|

|-----------------------------------------------------------|

|-----------------------------------------------------------|

9b(11) bend to fret indicated

\ slide down

~ vibrato

if you have any corrections or if you have any tab for other

machine head solos please email me orgasmo_7@hotmail.com

Get this song at:  amazon.com sheetmusicplus.com

Share your thoughts

0 Comments found