Machine Head

Machine Head - The Blood The Sweat The Tears Bass guitar tab

-------------------------------------------------------------------------------

THE BLOOD, THE SWEAT, THE TEARS - Machine Head

-------------------------------------------------------------------------------

Tabbed By : tabs-database_saxman

e-mail: webmaster at tabs-database.com.com (feel free to email with any suggestions/comments)

Tuning: Normal 5-String (B E A D G)

Drums + Guitar begin

Intro, at 0:13:

G|-----------|

D|-----------|

A|-----------|

E|-----------|

B|-//12\\\\----|

G|-------------------------------------------------------------------|

D|-------------------------------------------------------------------|

A|-------------------------------------------------------------------| x2

E|-------------------------------------------------------------------|

B|-3-1-0--4-1-1--3-1-0--4-1-1~--4---3-1-0--4-1-1--3-1-0--4-1-1~--6---|

Preverse:

G|------------------|

D|------------------|

A|------------------|

E|------------------|

B|-6~--6~--6~--6~---|

Verse:

G|-------------------|

D|-------------------|

A|-------------------| x4

E|-------------------|

B|--0-1-0~~-x-1-0~~--|

G|-----------------------------------|

D|-----------------------------------|

A|-----------------------------------| x4

E|-------5----------5------88888888--|

B|-0-1-0---0~--1-0~---0~-------------|

G|----------------------------------|

D|----------------------------------|

A|----------------------------------|

E|-5-5-555-5-5-555------------------|

B|-----------------6-6-666-6-6-666--|

G|-----------------------------------|

D|-----------------------------------|

A|-----------------------------------| x2

E|-------5----------5------88888888--|

B|-0-1-0---0~--1-0~---0~-------------|

Prechorus:

G|-------------------------------------|

D|-------------------------------------|

A|-------------------------------------|

E|-5-5-555-5-5-555-8~~~~~-///12--------|

B|------------------------------12\\\\\\--|

Chorus:

G|-------------------------------------------------------------------|

D|-------------------------------------------------------------------|

A|-------------------------------------------------------------------| x2

E|-------------------------------------------------------------------|

B|-3-1-0--4-1-1--3-1-0--4-1-1~--4---3-1-0--4-1-1--3-1-0--4-1-1~--6---|

Preverse:

G|------------------|

D|------------------|

A|------------------|

E|------------------|

B|-6~--6~--6~--6~---|

Verse:

G|-------------------|

D|-------------------|

A|-------------------| x4

E|-------------------|

B|--0-1-0~~-x-1-0~~--|

G|-----------------------------------|

D|-----------------------------------|

A|-----------------------------------| x4

E|-------5----------5------88888888--|

B|-0-1-0---0~--1-0~---0~-------------|

Prechorus:

G|-------------------------------------|

D|-------------------------------------|

A|-------------------------------------|

E|-5-5-555-5-5-555-8~~~~~-///12--------|

B|------------------------------12\\\\\\--|

Chorus:

G|-------------------------------------------------------------------|

D|-------------------------------------------------------------------|

A|-------------------------------------------------------------------| x2

E|-------------------------------------------------------------------|

B|-3-1-0--4-1-1--3-1-0--4-1-1~--4---3-1-0--4-1-1--3-1-0--4-1-1~--6---|

Bridge:

G|-----------------------|

D|-----------------------|

A|-----------------------| x4

E|-------5---------5-----|

B|-0-1-0---0--1-0----0---|

G|------------------------------|

D|------------------------------|

A|------------------------------| x8

E|-------5------------5----12^--|

B|-0-1-0---0~--1-0~-----0-------|

G|------------------------------------|

D|------------------------------------|

A|------------------------------------| x4

E|-5-5-555-5-5-555--------------------|

B|-----------------6-6-666-6-6-666----|

Pause for vox and guitar then

G|-------------|

D|-------------|

A|-------------|

E|--88888888---|

B|-------------|

Chorus:

G|----------------------------------------|

D|----------------------------------------|

A|----------------------------------------| x4

E|-----------------------------88888888---|

B|-3-1-0--4-1-1--3-1-0--4-1-1-------------|

Outro:

G|-------------------------------|

D|-------------------------------|

A|-------------------------------| x3

E|-------5------------5----------|

B|-0-1-0---0~--1-0~-----0~-12\\\\--|

G|-----------------------||

D|-----------------------||

A|-----------------------||

E|-------5---------5-----||

B|-0-1-0---0--1-0----0---||

END

| / slide up

| \\ slide down

| h hammer-on

| p pull-off

| ~ vibrato

| + harmonic

| x Mute note

===============================================================================

Added by tabs-database.com and our distinguished partners

Get this song at:  amazon.com sheetmusicplus.com

Share your thoughts

0 Comments found