Machine Head

Machine Head - The Blood Sweat And The Tears bass tab

Song:The Blood, The Sweat, The Tears

Band:Machine Head

Album:The Burning Red

tabbed by:Barraza (chrisbarraza@hotmail.com)

This part comes in after the intro with a bass slide.

A:---/5-6-0--------|

Chorus

G:----------------------------------------||

D:----------------------------------------||

A:---222----333---222---333-----6---------||

E:----------------------------------------||

Verse

G:----------------------------------||

D:----------------------------------||

A:----------------------------------||

E:---0-2-0----1-0-------------------||

Change

G:--------------------------------------------||

D:--------------------------------------------||

A:---2--3-2-0--2---3-2-0-2---66666------------||

E:--------------------------------------------||

Bridge

G:--------------------------------------------||

D:--------------------------------------------||

A:---0-0-0-0-0--------------------------------||

E:----------------1-1-1-1-1-1-----------------||

Variation 1

G:--------------------------------------------||

D:--------------------------------------------||

A:---2--3-2-0--2---3-2-0-2----6b--------------||

E:--------------------------------------------||

Ending

G:------------------------------------||

D:------------------------------------||

A:---2--3-2-0--2---3-2-0-2------------||

E:------------------------------------||

Intro x1

Chorus x4

Verse x4

Change x4

Bridge x1

Change x2

Bridge x1

Chorus x4

Verse x4

Change x4

Bridge x1

Chorus x4

End x4

Variation 1 x8

Bridge x4

Chorus x4

Ending x4

Got that...Listen to the song and It'll come straight to you.

Any questions or comments please email me.

Taken from The BassMasta -- http://www.tabs-database.com

Get this song at:  amazon.com sheetmusicplus.com

Share your thoughts

0 Comments found