Machine Head

Machine Head - Slanderous guitar tab

SLANDEROUS

As recorded by Machine Head

(From the 2007 Album THE BLACKENING)

Words and Music by Machine Head

Transcribed by Marlo - Exported from Marlos tab using Powertab - for those who want a text version!

Gtr I (B F# B E G# C#) - 'Untitled'

Gtr II (B F# B E G# C#) - 'Untitled'

Gtr III (B Gb B E Ab Db) - 'Untitled'

Gtr IV (B Gb B E Ab Db) - 'Untitled'

Intro

Q=160

4/4

Gtr I

|---------|-------------------------|-----------------------------|

|---------|-------------------------|-----------------------------|

|---------|-8-7-5-7-5---5-----------|-10-8-7-8-7----7-------------|

|---------|-----------8---8-7-5-----|------------10---10-8-7------|

|---------|---------------------8-6-|------------------------10-8-|

|---------|-------------------------|-----------------------------|

|

| Gtr II

|---------|-------------------------|-----------------------------|

|---------|-------------------------|-----------------------------|

|---------|-8-7-5-7-5---5-----------|-10-8-7-8-7----7-------------|

|---------|-----------8---8-7-5-----|------------10---10-8-7------|

|---------|---------------------8-6-|------------------------10-8-|

|---------|-------------------------|-----------------------------|

|-----------------------|-----------------------|-----------------------|

|-----------------------|-----------------------|-----------------------|

|-----------------5-7-8-|-----------------5-7-8-|-----------------5-7-5-|

|-----------5-7-8-------|-----------5-7-8-------|-----------5-7-8-------|

|-----5-6-8-------------|-----5-6-8-------------|-----5-6-8-------------|

|-0-0-------------------|-0-0-------------------|-0-0-------------------|

|

|-----------------------|-----------------------|-----------------------|

|-----------------------|-----------------------|-----------------------|

|-----------------------|-----------------------|-----------------------|

|-----------------------|-----------------------|-----------------------|

|-----------------------|-----------------------|-----------------------|

|-0-0-------------------|-0-0-------------------|-0-0-------------------|

|-------------------------|-----------------------|------------------------|

|-------------------------|-----------------------|------------------------|

|-8-7-5-7-5---5-----------|-----------------5-7-8-|-----------------5-7-8--|

|-----------8---8-7-5-----|-----------5-7-8-------|-----------5-7-8--------|

|---------------------8-6-|-----5-6-8-------------|-----5-6-8--------------|

|-------------------------|-0-0-------------------|-0-0--------------------|

|

|-------------------------|-----------------------|------------------------|

|-------------------------|-----------------------|------------------------|

|-8-7-5-7-5---5-----------|-----------------------|------------------------|

|-----------8---8-7-5-----|-----------------------|------------------------|

|---------------------8-6-|-----------------------|------------------------|

|-------------------------|-0-0-------------------|-0-0--------------------|

~~~

|-----------------------|--------------------------------|

|-----------------------|--------------------------------|

|-----------------5-7-5-|-8-7-5-7-5---[7]-------(7)------|

|-----------5-7-8-------|-----------8--------------------|

|-----5-6-8-------------|--------------------------------|

|-0-0-------------------|--------------------------------|

|

|-----------------------|--------------------------------|

|-----------------------|--------------------------------|

|-----------------------|-8-7-5-7-5----5-----------------|

|-----------------------|-----------8-----8-7-5----------|

|-----------------------|------------------------8--6----|

|-0-0-------------------|--------------------------------|

|-----------------------|-----------------------|-----------------------|

|-----------------------|-----------------------|-----------------------|

|-----------------5-7-8-|-----------------5-7-8-|-----------------5-7-5-|

|-----------5-7-8-------|-----------5-7-8-------|-----------5-7-8-------|

|-----5-6-8-------------|-----5-6-8-------------|-----5-6-8-------------|

|-0-0-------------------|-0-0-------------------|-0-0-------------------|

|

|-----------------------|-----------------------|-----------------------|

|-----------------------|-----------------------|-----------------------|

|-----------------5-7-8-|-----------------5-7-8-|-----------------5-7-5-|

|-----------5-7-8-------|-----------5-7-8-------|-----------5-7-8-------|

|-----5-6-8-------------|-----5-6-8-------------|-----5-6-8-------------|

|-0-0-------------------|-0-0-------------------|-0-0-------------------|

|-------------------------|-----------------------|------------------------|

|-------------------------|-----------------------|------------------------|

|-8-7-5-7-5---5-----------|-----------------5-7-8-|-----------------5-7-8--|

|-----------8---8-7-5-----|-----------5-7-8-------|-----------5-7-8--------|

|---------------------8-6-|-----5-6-8-------------|-----5-6-8--------------|

|-------------------------|-0-0-------------------|-0-0--------------------|

|

|-------------------------|-----------------------|------------------------|

|-------------------------|-----------------------|------------------------|

|-8-7-5-7-5---5-----------|-----------------5-7-8-|-----------------5-7-8--|

|-----------8---8-7-5-----|-----------5-7-8-------|-----------5-7-8--------|

|---------------------8-6-|-----5-6-8-------------|-----5-6-8--------------|

|-------------------------|-0-0-------------------|-0-0--------------------|

|-----------------------|---------------------------------|

|-----------------------|---------------------------------|

|-----------------5-7-5-|--8--7-5--7-5----5---------------|

|-----------5-7-8-------|---------------8----8--7-5-------|

|-----5-6-8-------------|----------------------------8--6-|

|-0-0-------------------|---------------------------------|

|

|-----------------------|---------------------------------|

|-----------------------|---------------------------------|

|-----------------5-7-5-|-12-10-8-10-8----8---------------|

|-----------5-7-8-------|--------------12---12-10-8-------|

|-----5-6-8-------------|---------------------------12-10-|

|-0-0-------------------|---------------------------------|

|-------------------------------------|

|-------------------------------------|

|-10--8--7--8--7-----7----------------|

|----------------10----10--8--7-------|

|-------------------------------10--8-|

|-------------------------------------|

|

|-------------------------------------|

|-------------------------------------|

|-14-12-10-12-10----10----------------|

|----------------13----13-12-10-------|

|-------------------------------13-12-|

|-------------------------------------|

|--------------------------------|

|--------------------------------|

|--------------------------------|

|-0-0-13-0-13-0-15-0-16-15-13----|

|--------------------------------|

|--------------------------------|

|

|--------------------------------|

|--------------------------------|

|--------------------------------|

|-0------------------------------|

|-0------------------------------|

|-0------------------------------|

Verse

||------------------------|-----------------------|------------------------|

||o-----------------------|-----------------------|------------------------|

||------------------------|-----------------------|------------------------|

||------------------------|-----------------------|------------------------|

||o-----------------------|-----------------------|------------------------|

||--0-0-1-0-1-0-3-0-4-3-1-|-0-0-1-0-1-0-3-0-4-3-1-|-0-0-1-0-1-0-3-0-4-3-1--|

|

||------------------------|-----------------------|------------------------|

||o-----------------------|-----------------------|------------------------|

||------------------------|-----------------------|------------------------|

||------------------------|-----------------------|------------------------|

||o-----------------------|-----------------------|------------------------|

||--0-0-1-0-1-0-3-0-4-3-1-|-0-0-1-0-1-0-3-0-4-3-1-|-0-0-1-0-1-0-3-0-4-3-1--|

|-----------------------|-----------------------|

|-----------------------|-----------------------|

|-------3-3-3-3-3-3-2-2-|-----------------------|

|-------x-x-x-x-x-x-x-x-|-----------------------|

|-------1-1-1-1-1-1-0-0-|-----------------------|

|-0-0-0-----------------|-0-0-1-0-1-0-3-0-4-3-1-|

|

|-----------------------|-----------------------|

|-----------------------|-----------------------|

|-------3-3-3-3-3-3-2-2-|-----------------------|

|-------x-x-x-x-x-x-x-x-|-----------------------|

|-------1-1-1-1-1-1-0-0-|-----------------------|

|-0-0-0-----------------|-0-0-1-0-1-0-3-0-4-3-1-|

|-----------------------|-----------------------|

|-----------------------|-----------------------|

|-----------------------|-----------------------|

|-----------------------|-----------------------|

|-----------------------|-----------------------|

|-0-0-1-0-1-0-3-0-4-3-1-|-0-0-1-0-1-0-3-0-4-3-1-|

|

|-----------------------|-----------------------|

|-----------------------|-----------------------|

|-----------------------|-----------------------|

|-----------------------|-----------------------|

|-----------------------|-----------------------|

|-0-0-1-0-1-0-3-0-4-3-1-|-0-0-1-0-1-0-3-0-4-3-1-|

|------------------------||----------------------|

|-----------------------o||----------------------|

|-------3-3-3-3-3-3-5-5--||----------------------|

|-------x-x-x-x-x-x-x-x--||----------------------|

|-------1-1-1-1-1-1-3-3-o||------6-6-6-6-6-6-5-3-|

|-0-0-0------------------||-0-0------------------|

|

|------------------------||----------------------|

|-----------------------o||----------------------|

|-------3-3-3-3-3-3-5-5--||----------------------|

|-------x-x-x-x-x-x-x-x--||----------------------|

|-------1-1-1-1-1-1-3-3-o||------6-6-6-6-6-6-5-3-|

|-0-0-0------------------||-0-0------------------|

|----------------------|----------------------|----------------------|

|----------------------|----------------------|----------------------|

|----------------------|----------------------|----------------------|

|----------------------|------5-5-5-5-5-5-----|------8-8-8-8-8-8-7-5-|

|------8-8-8-8-8-8-6-5-|------------------8-6-|----------------------|

|-0-0------------------|-0-0------------------|-0-0------------------|

|

|----------------------|----------------------|----------------------|

|----------------------|----------------------|----------------------|

|----------------------|----------------------|----------------------|

|----------------------|------5-5-5-5-5-5-----|------8-8-8-8-8-8-7-5-|

|------8-8-8-8-8-8-6-5-|------------------8-6-|----------------------|

|-0-0------------------|-0-0------------------|-0-0------------------|

|----------------------|----------------------------|

|----------------------|----------------------------|

|----------------------|----------------------------|

|------5-5-5-5-5-5-----|-------7--7--7--7--7--7-5---|

|------------------8-6-|--------------------------8-|

|-0-0------------------|-0-0------------------------|

|

|----------------------|----------------------------|

|----------------------|----------------------------|

|------8-8-8-8-8-8-7-5-|------10-10-10-10-10-10-8-7-|

|----------------------|----------------------------|

|----------------------|----------------------------|

|-0-0------------------|-0-0------------------------|

|-----------------------------|------------------------------|

|-----------------------------|------------------------------|

|-----------------------------|-------8--8--8--8--8--8--8--8-|

|-------8--8--8--8--8--8--7-5-|------------------------------|

|-----------------------------|------------------------------|

|-0-0-------------------------|-0-0--------------------------|

|

|-----------------------------|------------------------------|

|-----------------------------|------------------------------|

|------12-12-12-12-12-12-10-8-|------15-14-15-14-15-14-15-14-|

|-----------------------------|------------------------------|

|-----------------------------|------------------------------|

|-0-0-------------------------|-0-0--------------------------|

Chorus

Gtrs I, II

|-----------|------------------|-----------|-------------|

|-----------|------------------|-----------|-------------|

|-----------|------------------|-----------|-------------|

|-0----7----|-3----3-1-0-------|-0----7----|-1-----------|

|-0----7----|-3----------3-1-0-|-0----7----|-1-1-1-1-1-1-|

|-0----7----|-3----------------|-0----7----|-1-1-1-1-1-1-|

|-----------|------------------|-----------|-------------|

|-----------|------------------|-----------|-------------|

|-----------|------------------|-----------|-------------|

|-0----7----|-3----7-5-3-------|-0----7----|-1-----------|

|-0----7----|-3----------6-5-3-|-0----7----|-1-1-1-1-1-1-|

|-0----7----|-3----------------|-0----7----|-1-1-1-1-1-1-|

Gtr I

|--------------------------------|

|--------------------------------|

|--------------------------------|

|-0-0-13-0-13-0-15-0-16-15-13----|

|--------------------------------|

|--------------------------------|

|

| Gtr II

|--------------------------------|

|--------------------------------|

|--------------------------------|

|-0------------------------------|

|-0------------------------------|

|-0------------------------------|

Verse

||------------------------|-----------------------|------------------------|

||o-----------------------|-----------------------|------------------------|

||------------------------|-----------------------|------------------------|

||------------------------|-----------------------|------------------------|

||o-----------------------|-----------------------|------------------------|

||--0-0-1-0-1-0-3-0-4-3-1-|-0-0-1-0-1-0-3-0-4-3-1-|-0-0-1-0-1-0-3-0-4-3-1--|

|

||------------------------|-----------------------|------------------------|

||o-----------------------|-----------------------|------------------------|

||------------------------|-----------------------|------------------------|

||------------------------|-----------------------|------------------------|

||o-----------------------|-----------------------|------------------------|

||--0-0-1-0-1-0-3-0-4-3-1-|-0-0-1-0-1-0-3-0-4-3-1-|-0-0-1-0-1-0-3-0-4-3-1--|

|-----------------------|-----------------------|

|-----------------------|-----------------------|

|-------3-3-3-3-3-3-2-2-|-----------------------|

|-------x-x-x-x-x-x-x-x-|-----------------------|

|-------1-1-1-1-1-1-0-0-|-----------------------|

|-0-0-0-----------------|-0-0-1-0-1-0-3-0-4-3-1-|

|

|-----------------------|-----------------------|

|-----------------------|-----------------------|

|-------3-3-3-3-3-3-2-2-|-----------------------|

|-------x-x-x-x-x-x-x-x-|-----------------------|

|-------1-1-1-1-1-1-0-0-|-----------------------|

|-0-0-0-----------------|-0-0-1-0-1-0-3-0-4-3-1-|

|-----------------------|-----------------------|

|-----------------------|-----------------------|

|-----------------------|-----------------------|

|-----------------------|-----------------------|

|-----------------------|-----------------------|

|-0-0-1-0-1-0-3-0-4-3-1-|-0-0-1-0-1-0-3-0-4-3-1-|

|

|-----------------------|-----------------------|

|-----------------------|-----------------------|

|-----------------------|-----------------------|

|-----------------------|-----------------------|

|-----------------------|-----------------------|

|-0-0-1-0-1-0-3-0-4-3-1-|-0-0-1-0-1-0-3-0-4-3-1-|

|------------------------||----------------------|

|-----------------------o||----------------------|

|-------3-3-3-3-3-3-5-5--||----------------------|

|-------x-x-x-x-x-x-x-x--||----------------------|

|-------1-1-1-1-1-1-3-3-o||------6-6-6-6-6-6-5-3-|

|-0-0-0------------------||-0-0------------------|

|

|------------------------||----------------------|

|-----------------------o||----------------------|

|-------3-3-3-3-3-3-5-5--||----------------------|

|-------x-x-x-x-x-x-x-x--||----------------------|

|-------1-1-1-1-1-1-3-3-o||------6-6-6-6-6-6-5-3-|

|-0-0-0------------------||-0-0------------------|

|----------------------|----------------------|----------------------|

|----------------------|----------------------|----------------------|

|----------------------|----------------------|----------------------|

|----------------------|------5-5-5-5-5-5-----|------8-8-8-8-8-8-7-5-|

|------8-8-8-8-8-8-6-5-|------------------8-6-|----------------------|

|-0-0------------------|-0-0------------------|-0-0------------------|

|

|----------------------|----------------------|----------------------|

|----------------------|----------------------|----------------------|

|----------------------|----------------------|----------------------|

|----------------------|------5-5-5-5-5-5-----|------8-8-8-8-8-8-7-5-|

|------8-8-8-8-8-8-6-5-|------------------8-6-|----------------------|

|-0-0------------------|-0-0------------------|-0-0------------------|

|----------------------|----------------------------|

|----------------------|----------------------------|

|----------------------|----------------------------|

|------5-5-5-5-5-5-----|-------7--7--7--7--7--7-5---|

|------------------8-6-|--------------------------8-|

|-0-0------------------|-0-0------------------------|

|

|----------------------|----------------------------|

|----------------------|----------------------------|

|------8-8-8-8-8-8-7-5-|------10-10-10-10-10-10-8-7-|

|----------------------|----------------------------|

|----------------------|----------------------------|

|-0-0------------------|-0-0------------------------|

|-----------------------------|------------------------------|

|-----------------------------|------------------------------|

|-----------------------------|-------8--8--8--8--8--8--8--8-|

|-------8--8--8--8--8--8--7-5-|------------------------------|

|-----------------------------|------------------------------|

|-0-0-------------------------|-0-0--------------------------|

|

|-----------------------------|------------------------------|

|-----------------------------|------------------------------|

|------12-12-12-12-12-12-10-8-|------15-14-15-14-15-14-15-14-|

|-----------------------------|------------------------------|

|-----------------------------|------------------------------|

|-0-0-------------------------|-0-0--------------------------|

Chorus

|-----------|------------------|-----------|-------------|

|-----------|------------------|-----------|-------------|

|-----------|------------------|-----------|-------------|

|-0----7----|-3----3-1-0-------|-0----7----|-1-----------|

|-0----7----|-3----------3-1-0-|-0----7----|-1-1-1-1-1-1-|

|-0----7----|-3----------------|-0----7----|-1-1-1-1-1-1-|

|

|-----------|------------------|-----------|-------------|

|-----------|------------------|-----------|-------------|

|-----------|------------------|-----------|-------------|

|-0----7----|-3----3-1-0-------|-0----7----|-1-----------|

|-0----7----|-3----------3-1-0-|-0----7----|-1-1-1-1-1-1-|

|-0----7----|-3----------------|-0----7----|-1-1-1-1-1-1-|

|-----------|------------------|-----------|-------------|

|-----------|------------------|-----------|-------------|

|-----------|------------------|-----------|-------------|

|-0----7----|-3----7-5-3-------|-0----7----|-1-----------|

|-0----7----|-3----------6-5-3-|-0----7----|-1-1-1-1-1-1-|

|-0----7----|-3----------------|-0----7----|-1-1-1-1-1-1-|

|

|-----------|------------------|-----------|-------------|

|-----------|------------------|-----------|-------------|

|-----------|------------------|-----------|-------------|

|-0----7----|-3----7-5-3-------|-0----7----|-1-----------|

|-0----7----|-3----------6-5-3-|-0----7----|-1-1-1-1-1-1-|

|-0----7----|-3----------------|-0----7----|-1-1-1-1-1-1-|

Breakdown

|-------------|---------------|---------------|---------------|----------------|

|-------------|---------------|---------------|---------------|----------------|

|-------------|---------------|---------------|---------------|----------------|

|-8-8-8-8-8-8-|---------------|---------------|---------------|----------------|

|-6-6-6-6-6-6-|---------------|---------------|---------------|----------------|

|-------------|---------------|---------------|---------------|----------------|

|

| PM--------------------------------------|

|-------------|---------------|---------------|---------------|----------------|

|-------------|---------------|---------------|---------------|----------------|

|-------------|---------------|---------------|---------------|----------------|

|-8-8-8-8-8-8-|-0-------------|---------------|---------------|----------------|

|-6-6-6-6-6-6-|-0-0-0-0-0-0---|-0-0-0-0-0-0---|-0-0-0-0-0-0---|-5S6-5S6-5S6----|

|-------------|-0-0-0-0-0-0---|-0-0-0-0-0-0---|-0-0-0-0-0-0---|----------------|

PM------| PM----------| PM----|

|-------------|--------------|--------------|-------------------|

|-------------|-10-----------|---10---------|-------------------|

|-------------|-13-----------|---13---------|-------------------|

|-0-----------|--------------|--------------|-------------------|

|-0-0-0-0-0-0-|----0-0-0-0-0-|-0----0-0-0-0-|-5-/6-5-/6-5-/6----|

|-0-0-0-0-0-0-|----0-0-0-0-0-|-0----0-0-0-0-|-------------------|

|

| PM------| PM----------| PM----|

|-------------|--------------|--------------|-------------------|

|-------------|-10-----------|---10---------|-------------------|

|-------------|-13-----------|---13---------|-------------------|

|-0-----------|--------------|--------------|-------------------|

|-0-0-0-0-0-0-|----0-0-0-0-0-|-0----0-0-0-0-|-5-/6-5-/6-5-/6----|

|-0-0-0-0-0-0-|----0-0-0-0-0-|-0----0-0-0-0-|-------------------|

PM------| PM----------| PM----|

|-------------|--------------|----8---------|----------------|

|-------------|-10-----------|---10---------|----------------|

|-------------|-13-----------|---13---------|----------------|

|-0-----------|--------------|--------------|----------------|

|-0-0-0-0-0-0-|----0-0-0-0-0-|-0----0-0-0-0-|-5S6-5S6-5S6----|

|-0-0-0-0-0-0-|----0-0-0-0-0-|-0----0-0-0-0-|----------------|

|

| PM------| PM----------| PM----|

|-------------|--------------|--------------|----------------|

|-------------|-10-----------|---10---------|----------------|

|-------------|-13-----------|---13---------|----------------|

|-0-----------|--------------|--------------|----------------|

|-0-0-0-0-0-0-|----0-0-0-0-0-|-0----0-0-0-0-|-5S6-5S6-5S6----|

|-0-0-0-0-0-0-|----0-0-0-0-0-|-0----0-0-0-0-|----------------|

PM------| PM-------------

|-------------|------------------|

|-------------|--5---------------|

|-------------|--4---------------|

|-2-----------|--2---------------|

|-2-2-2-2-2-2-|--2-2--2--2--2--2-|

|-2-2-2-2-2-2-|--2-2--2--2--2--2-|

|

|-------------|------------------|

|-------------|------------------|

|-------------|------------------|

|-------------|------------------|

|---------0-0-|-/2---(2)---(2)---|

|-2-2-2-5-----|------------------|

-| PM----|

|---------------|--------------------------------|

|-----5---------|--------------------------------|

|-----4---------|--------------------------------|

|-----2---------|-2S===3---2S====3---2S====3-----|

|--2--2-2-2-2-2-|--------------------------------|

|--2--2-2-2-2-2-|--------------------------------|

|

|---------------|--------------------------------|

|---------------|--------------------------------|

|-----------2-0-|-2b3r(2)-(2)b3r(2)-(2)b3r(2)----|

|-----2-2-5-----|--------------------------------|

|-(2)-----------|--------------------------------|

|---------------|--------------------------------|

PM------| PM-------------

|-------------|------------------|

|-------------|--7---------------|

|-------------|--6---------------|

|-4-----------|--4---------------|

|-4-4-4-4-4-4-|--4-4--4--4--4--4-|

|-4-4-4-4-4-4-|--4-4--4--4--4--4-|

|

|-------------|------------------|

|-------------|------------------|

|-------------|------------------|

|-------------|------------------|

|---------2-2-|-/4---(4)---(4)---|

|-4-4-4-7-----|------------------|

-| PM----|

|---------------|--------------------------------|

|-----7---------|--------------------------------|

|-----6---------|--------------------------------|

|-----4---------|-4S===5---4S====5---4S====5-----|

|--4--4-4-4-4-4-|--------------------------------|

|--4--4-4-4-4-4-|--------------------------------|

|

|---------------|--------------------------------|

|---------------|--------------------------------|

|-----------4-2-|-4b5r(4)-(4)b5r(4)-(4)b5r(4)----|

|-----4-4-7-----|--------------------------------|

|-(4)-----------|--------------------------------|

|---------------|--------------------------------|

|----------------|

|-7S8-7S8-7S8----|

|----------------|

|----------------|

|----------------|

|----------------|

|

|----------------|

|-7S8-7S8-7S8----|

|----------------|

|----------------|

|----------------|

|----------------|

Pre-Guitar Solo

Q=160

4/4

Gtr I

|----------|------------|------------|---------|

|----------|------------|------------|---------|

|----------|------------|------------|---------|

|-9--------|-(9)--------|-(9)--------|-(9)-----|

|-9--------|-(9)--------|-(9)--------|-(9)-----|

|-9--------|-(9)--------|-(9)--------|-(9)-----|

|

|----------|------------|------------|---------|

|----------|------------|------------|---------|

|----------|------------|------------|---------|

|-9--------|-(9)--------|--x\\--------|-(x)\\----|

|-9--------|-(9)--------|--x\\--------|-(x)\\----|

|-9--------|-(9)--------|--x\\--------|-(x)\\----|

Guitar Solo

|--------------------------|------------------------------------------|

|--------------------------|------------------------------------------|

|--------------------------|----------------9b11r=7--9b11-------------|

|-7S9-9-9-9-9-12-9-9-9-9-9-|-11-9-9-12-9-9----------------------------|

|--------------------------|------------------------------------------|

|--------------------------|------------------------------------------|

|

|--------------------------|------------------------------------------|

|--------------------------|------------------------------------------|

|--------------------------|------------------------------------------|

|--------------------------|------------------------------------------|

|-9-9-9-9-9-9--9-9-9-9-9-9-|--9-9-9--9-9-9-10----10-10----12-12-12----|

|-9-9-9-9-9-9--9-9-9-9-9-9-|--9-9-9--9-9-9-10----10-10----12-12-12----|

|-------------------------------------|

|-10S12-12-12-12-12-15-12-12-12-12-15-|

|-------------------------------------|

|-------------------------------------|

|-------------------------------------|

|-------------------------------------|

|

|-------------------------------------|

|-------------------------------------|

|-------------------------------------|

|-------------------------------------|

|--9--9--9--9--9--9--9--9--9--9--9--9-|

|--9--9--9--9--9--9--9--9--9--9--9--9-|

|------------------------------------------|

|-17b19r15h17-15-14-15-14----14------------|

|-------------------------16-----14--16----|

|------------------------------------------|

|------------------------------------------|

|------------------------------------------|

|

|------------------------------------------|

|------------------------------------------|

|------------------------------------------|

|------------------------------------------|

|-12----14----15----14----15----(15)-------|

|-12----14----15----14----15----(15)-------|

|---------17---------17---------17---------17-|

|-17b19------17b19------17b19------17b19------|

|---------------------------------------------|

|---------------------------------------------|

|---------------------------------------------|

|---------------------------------------------|

|

|---------------------------------------------|

|---------------------------------------------|

|---------------------------------------------|

|---------------------------------------------|

|--9----9--9--9----9--9--9----9--9--9----9--9-|

|--9----9--9--9----9--9--9----9--9--9----9--9-|

|---------17---------17----------17----------17--|

|-17b19------17b19------17b19-------17b19--------|

|------------------------------------------------|

|------------------------------------------------|

|------------------------------------------------|

|------------------------------------------------|

|

|------------------------------------------------|

|------------------------------------------------|

|------------------------------------------------|

|------------------------------------------------|

|--9----9--9--9----9--9-10----10-10-12----12-12--|

|--9----9--9--9----9--9-10----10-10-12----12-12--|

|-14-15-14----14----------------14-15-17-|

|----------17----17-15-14-15-17----------|

|----------------------------------------|

|----------------------------------------|

|----------------------------------------|

|----------------------------------------|

|

|----------------------------------------|

|----------------------------------------|

|----------------------------------------|

|----------------------------------------|

|--9-----9--9--9--9--9--9--9--9--9--9--9-|

|--9-----9--9--9--9--9--9--9--9--9--9--9-|

~~~~~

|-21-22-21-19-21-19-17-------22---------------|

|----------------------22b24----22b24---------|

|---------------------------------------------|

|---------------------------------------------|

|---------------------------------------------|

|---------------------------------------------|

|

|---------------------------------------------|

|---------------------------------------------|

|---------------------------------------------|

|---------------------------------------------|

|-12-------14----15----14----15-------(15)----|

|-12-------14----15----14----15-------(15)----|

PM--------------------------------------------------------------|

|---------------------------------|-------------------------------------|

|---------------------------------|-------------------------------------|

|---------------------------------|-------------------------------------|

|---------------------------------|-------------------------------------|

|--4----4-4-4--4----4-4-4-4-4-4-4-|--4----4---4--4--4-4--5-5-5-7-7-7----|

|--4----4-4-4--4----4-4-4-4-4-4-4-|--4----4---4--4--4-4--5-5-5-7-7-7----|

|

| ~~~~~ ~~

|-19b21-------19b21---------------|-19b21r==(19)---18---19--------------|

|---------------------------------|-------------------------------------|

|---------------------------------|-------------------------------------|

|---------------------------------|-------------------------------------|

|---------------------------------|-------------------------------------|

|---------------------------------|-------------------------------------|

PM------------------------------------|

|-------------------------------------------|

|-------------------------------------------|

|-------------------------------------------|

|-------------------------------------------|

|--4-----4--4--4--4--4--4-----4--4--4--4--4-|

|--4-----4--4--4--4--4--4-----4--4--4--4--4-|

|

|-18-19-18-15-18-14-15-14-15-14-12-14----12-|

|-------------------------------------15----|

|-------------------------------------------|

|-------------------------------------------|

|-------------------------------------------|

|-------------------------------------------|

|--------------------------------------|

|--------------------------------------|

|--------------------------------------|

|--------------------------------------|

|--7--------9----10-----9--10-(10)\\----|

|--7--------9----10-----9--10-(10)\\----|

|

|--------------------------------------|

|-14-15-14-12-14-----------------------|

|----------------14-16-15\\-------------|

|--------------------------------------|

|--------------------------------------|

|--------------------------------------|

PM----------------------------------------------------

|-------------------------------------------------------|

|-------------------------------------------------------|

|-------------------------------------------------------|

|-------------------------------------------------------|

|--4-----4--4-----4--4-----4--4-----4--4-----4--4-----4-|

|--4-----4--4-----4--4-----4--4-----4--4-----4--4-----4-|

|

|-------------------------------------------------------|

|-------------------------------------------------------|

|-------------------------------------------------------|

|----------------------------14-16-17-14-16-17-14-16-17-|

|-13-14-16-13-14-16-13-14-16----------------------------|

|-------------------------------------------------------|

----------------------------------------------------|

|----------------------------------------------------------|

|----------------------------------------------------------|

|----------------------------------------------------------|

|----------------------------------------------------------|

|--4-----4--4-----4--4-----4--5-----5--5-----7--7-----7----|

|--4-----4--4-----4--4-----4--5-----5--5-----7--7-----7----|

|

|----------------------------------------------------------|

|----------------------------14-15-17-14-15-17-14-15-17----|

|-15-16-18-15-16-18-15-16-18-------------------------------|

|----------------------------------------------------------|

|----------------------------------------------------------|

|----------------------------------------------------------|

PM--------------------------|

|---------------------------------|---------------------------------|

|---------------------------------|---------------------------------|

|---------------------------------|---------------------------------|

|---------------------------------|---------------------------------|

|--4-4--4--4-4--4--4-4--4--4-4--4-|--7-9----10----9----10-(10)\\-----|

|--4-4--4--4-4--4--4-4--4--4-4--4-|--7-9----10----9----10-(10)\\-----|

|

| TP TP TP TP TP TP TP TP TP TP TP TP ~~~~~~

|-18------18------18------18------|-21---------21----------22b24----|

|------19------19------19------19-|------23---------23--------------|

|---------------------------------|---------------------------------|

|---------------------------------|---------------------------------|

|---------------------------------|---------------------------------|

|---------------------------------|---------------------------------|

|-------------------------------------|-------------------------------------|

|-------------------------------------|-------------------------------------|

|-16-14-13----13-14-16-14-13----13-14-|-17-16-14----14-16-17-16-14----14-16-|

|----------14----------------14-------|----------15----------------15-------|

|-------------------------------------|-------------------------------------|

|-------------------------------------|-------------------------------------|

|

| PM--------------------------------------------------------------------|

|-------------------------------------|-------------------------------------|

|-------------------------------------|-------------------------------------|

|-------------------------------------|-------------------------------------|

|-------------------------------------|-------------------------------------|

|--5--5--5--5--5--5--5--5--5--5--5--5-|--7--7--7--7--7--7--7--7--7--7--7--7-|

|--5--5--5--5--5--5--5--5--5--5--5--5-|--7--7--7--7--7--7--7--7--7--7--7--7-|

|-------------------------------------|----------------------------------------|

|-------------------------------------|----------------------------------------|

|-19-17-16----16-17-19-17-16----16-17-|-21-19-17----17-19-21-19-17----17-19----|

|----------17----------------17-------|----------17----------------17----------|

|-------------------------------------|----------------------------------------|

|-------------------------------------|----------------------------------------|

|

| PM--------------------------------------------------------------------|

|-------------------------------------|----------------------------------------|

|-------------------------------------|----------------------------------------|

|-------------------------------------|----------------------------------------|

|-------------------------------------|----------------------------------------|

|--9--9--9--9--9--9--9--9--9--9--9--9-|-10-10-10-10-10-10-10-10-10-10-10-10----|

|--9--9--9--9--9--9--9--9--9--9--9--9-|-10-10-10-10-10-10-10-10-10-10-10-10----|

/ |

~~~~~~~~~~~~~~~~~~~~~~~~~~~~~~~~~~~

|--------------|--------------|--------------|-----------------|

|--------------|--------------|--------------|-----------------|

|-22b24--------|-22b24--------|-24b27--------|-[24]------(24)--|

|--------------|--------------|--------------|-----------------|

|--------------|--------------|--------------|-----------------|

|--------------|--------------|--------------|-----------------|

|

|--------------|--------------|--------------|-----------------|

|--------------|--------------|--------------|-----------------|

|--------------|--------------|--------------|-----------------|

|-13-----------|-13-----------|-13-----------|--13-------------|

|-13-----------|-13-----------|-13-----------|--13-------------|

|-13-----------|-13-----------|-13-----------|--13-------------|

Intro Riff

|-----------------------|-----------------------|-----------------------|

|-----------------------|-----------------------|-----------------------|

|-----------------5-7-8-|-----------------5-7-8-|-----------------5-7-5-|

|-----------5-7-8-------|-----------5-7-8-------|-----------5-7-8-------|

|-----5-6-8-------------|-----5-6-8-------------|-----5-6-8-------------|

|-0-0-------------------|-0-0-------------------|-0-0-------------------|

|

|-----------------------|-----------------------|-----------------------|

|-----------------------|-----------------------|-----------------------|

|-----------------------|-----------------------|-----------------------|

|-----------------------|-----------------------|-----------------------|

|-----------------------|-----------------------|-----------------------|

|-0-0-------------------|-0-0-------------------|-0-0-------------------|

|-------------------------|-----------------------|------------------------|

|-------------------------|-----------------------|------------------------|

|-8-7-5-7-5---5-----------|-----------------5-7-8-|-----------------5-7-8--|

|-----------8---8-7-5-----|-----------5-7-8-------|-----------5-7-8--------|

|---------------------8-6-|-----5-6-8-------------|-----5-6-8--------------|

|-------------------------|-0-0-------------------|-0-0--------------------|

|

|-------------------------|-----------------------|------------------------|

|-------------------------|-----------------------|------------------------|

|-8-7-5-7-5---5-----------|-----------------------|------------------------|

|-----------8---8-7-5-----|-----------------------|------------------------|

|---------------------8-6-|-----------------------|------------------------|

|-------------------------|-0-0-------------------|-0-0--------------------|

|-----------------------|---------------------------------|

|-----------------------|---------------------------------|

|-----------------5-7-5-|--8--7-5--7-5----5---------------|

|-----------5-7-8-------|---------------8----8--7-5-------|

|-----5-6-8-------------|----------------------------8--6-|

|-0-0-------------------|---------------------------------|

|

|-----------------------|---------------------------------|

|-----------------------|---------------------------------|

|-----------------------|-12-10-8-10-8----8---------------|

|-----------------------|--------------12---12-10-8-------|

|-----------------------|---------------------------12-10-|

|-0-0-------------------|---------------------------------|

|-------------------------------------|

|-------------------------------------|

|-10--8--7--8--7-----7----------------|

|----------------10----10--8--7-------|

|-------------------------------10--8-|

|-------------------------------------|

|

|-------------------------------------|

|-------------------------------------|

|-14-12-10-12-10----10----------------|

|----------------13----13-12-10-------|

|-------------------------------13-12-|

|-------------------------------------|

|--------------------------------|

|--------------------------------|

|--------------------------------|

|-0-0-13-0-13-0-15-0-16-15-13----|

|--------------------------------|

|--------------------------------|

|

|--------------------------------|

|--------------------------------|

|--------------------------------|

|--------------------------------|

|--------------------------------|

|-0------------------------------|

Verse

Gtrs I, II

||------------------------|-----------------------|----------------------|

||o-----------------------|-----------------------|----------------------|

||------------------------|-----------------------|----------------------|

||------------------------|-----------------------|----------------------|

||o-----------------------|-----------------------|----------------------|

||--0-0-1-0-1-0-3-0-4-3-1-|-0-0-1-0-1-0-3-0-4-3-1-|-0-0-1-0-1-0-3-0-4-3-1|

|-----------------------|-----------------------|

|-----------------------|-----------------------|

|-------3-3-3-3-3-3-2-2-|-----------------------|

|-------x-x-x-x-x-x-x-x-|-----------------------|

|-------1-1-1-1-1-1-0-0-|-----------------------|

|-0-0-0-----------------|-0-0-1-0-1-0-3-0-4-3-1-|

|-----------------------|-----------------------|

|-----------------------|-----------------------|

|-----------------------|-----------------------|

|-----------------------|-----------------------|

|-----------------------|-----------------------|

|-0-0-1-0-1-0-3-0-4-3-1-|-0-0-1-0-1-0-3-0-4-3-1-|

Gtr I

|------------------------||----------------------|

|-----------------------o||----------------------|

|-------3-3-3-3-3-3-5-5--||----------------------|

|-------x-x-x-x-x-x-x-x--||----------------------|

|-------1-1-1-1-1-1-3-3-o||------6-6-6-6-6-6-5-3-|

|-0-0-0------------------||-0-0------------------|

|

| Gtr II

|------------------------||----------------------|

|-----------------------o||----------------------|

|-------3-3-3-3-3-3-5-5--||----------------------|

|-------x-x-x-x-x-x-x-x--||----------------------|

|-------1-1-1-1-1-1-3-3-o||------6-6-6-6-6-6-5-3-|

|-0-0-0------------------||-0-0------------------|

|----------------------|----------------------|----------------------|

|----------------------|----------------------|----------------------|

|----------------------|----------------------|----------------------|

|----------------------|------5-5-5-5-5-5-----|------8-8-8-8-8-8-7-5-|

|------8-8-8-8-8-8-6-5-|------------------8-6-|----------------------|

|-0-0------------------|-0-0------------------|-0-0------------------|

|

|----------------------|----------------------|----------------------|

|----------------------|----------------------|----------------------|

|----------------------|----------------------|----------------------|

|----------------------|------5-5-5-5-5-5-----|------8-8-8-8-8-8-7-5-|

|------8-8-8-8-8-8-6-5-|------------------8-6-|----------------------|

|-0-0------------------|-0-0------------------|-0-0------------------|

|----------------------|----------------------------|

|----------------------|----------------------------|

|----------------------|----------------------------|

|------5-5-5-5-5-5-----|-------7--7--7--7--7--7-5---|

|------------------8-6-|--------------------------8-|

|-0-0------------------|-0-0------------------------|

|

|----------------------|----------------------------|

|----------------------|----------------------------|

|------8-8-8-8-8-8-7-5-|------10-10-10-10-10-10-8-7-|

|----------------------|----------------------------|

|----------------------|----------------------------|

|-0-0------------------|-0-0------------------------|

|-----------------------------|------------------------------|

|-----------------------------|------------------------------|

|-----------------------------|-------8--8--8--8--8--8--8--8-|

|-------8--8--8--8--8--8--7-5-|------------------------------|

|-----------------------------|------------------------------|

|-0-0-------------------------|-0-0--------------------------|

|

|-----------------------------|------------------------------|

|-----------------------------|------------------------------|

|------12-12-12-12-12-12-10-8-|------15-14-15-14-15-14-15-14-|

|-----------------------------|------------------------------|

|-----------------------------|------------------------------|

|-0-0-------------------------|-0-0--------------------------|

Out-Chorus

Gtr III

|-------------|-------------|-------------|-------------|

|-------------|-------------|-------------|-------------|

|----7-----7--|----7-----7--|----7-----7--|----7-----7--|

|-------------|-------------|-------------|-------------|

|-5-----8-----|-5-----8-----|-5-----8-----|-6-----6-----|

|-------------|-------------|-------------|-------------|

|

| Gtr IV

|-------------|-------------|-------------|-------------|

|-------------|-------------|-------------|-------------|

|-------------|-------------|-------------|-------------|

|-------------|-------------|-------------|-------------|

|-------------|-------------|-------------|-------------|

|-------------|-------------|-------------|-------------|

|---------------|--------------|---------------|-------|

|---------------|--------------|---------------|-------|

|-----7------7--|-----7-----7--|-----7------7--|-------|

|---------------|--------------|---------------|-------|

|--5------8-----|--5-----8-----|--5------8-----|--6----|

|---------------|--------------|---------------|-------|

|

|-10------------|--------------|-10------------|-------|

|--------13-----|--------------|--------13-----|-------|

|---------------|-14-----------|---------------|-13----|

|---------------|--------------|---------------|-------|

|---------------|--------------|---------------|-------|

|---------------|--------------|---------------|-------|

Gtr I

|-----------|------------------|-----------|-------------|

|-----------|------------------|-----------|-------------|

|-----------|------------------|-----------|-------------|

|-0----7----|-3----3-1-0-------|-0----7----|-1-----------|

|-0----7----|-3----------3-1-0-|-0----7----|-1-1-1-1-1-1-|

|-0----7----|-3----------------|-0----7----|-1-1-1-1-1-1-|

|

| Gtr II

|-----------|------------------|-----------|-------------|

|-----------|------------------|-----------|-------------|

|-----------|------------------|-----------|-------------|

|-0----7----|-3----3-1-0-------|-0----7----|-1-----------|

|-0----7----|-3----------3-1-0-|-0----7----|-1-1-1-1-1-1-|

|-0----7----|-3----------------|-0----7----|-1-1-1-1-1-1-|

~~~

|-----------|------------------|-----------|-----------------|

|-----------|------------------|-----------|-----------------|

|-----------|------------------|-----------|-------[3]-------|

|-0----7----|-3----7-5-3-------|-0----7----|-1---------------|

|-0----7----|-3----------6-5-3-|-0----7----|-1-1-1-----------|

|-0----7----|-3----------------|-0----7----|-1-1-1-----------|

|

|-----------|------------------|-----------|-----------------|

|-----------|------------------|-----------|-----------------|

|-----------|------------------|-----------|-----------------|

|-0----7----|-3----3-1-0-------|-0----7----|-1---------------|

|-0----7----|-3----------3-1-0-|-0----7----|-1-1-1--1--1-1---|

|-0----7----|-3----------------|-0----7----|-1-1-1--1--1-1---|

|-----------|------------------|-----------|-------------|

|-----------|------------------|-----------|-------------|

|-----------|------------------|-----------|-------------|

|-0----3----|-1----3-1-0-------|-0----3----|-1-----------|

|-0----3----|-1----------3-1-0-|-0----3----|-1-1-1-1-1-1-|

|-0----3----|-1----------------|-0----3----|-1-1-1-1-1-1-|

|

|-----------|------------------|-----------|-------------|

|-----------|------------------|-----------|-------------|

|-----------|------------------|-----------|-------------|

|-0----3----|-1----3-1-0-------|-0----3----|-1-----8-8-8-|

|-0----3----|-1----------3-1-0-|-0----3----|-1-1-1-6-6-6-|

|-0----3----|-1----------------|-0----3----|-1-1-1-------|

|-----------|------------------|-----------|-------------|

|-----------|------------------|-----------|-------------|

|-----------|------------------|-----------|-------------|

|-0----7----|-3----3-1-0-------|-0----7----|-1-----------|

|-0----7----|-3----------3-1-0-|-0----7----|-1-1-1-1-1-1-|

|-0----7----|-3----------------|-0----7----|-1-1-1-1-1-1-|

|

|-----------|------------------|-----------|-------------|

|-----------|------------------|-----------|-------------|

|-----------|------------------|-----------|-------------|

|-0----7----|-3----3-1-0-------|-0----7----|-1-----------|

|-0----7----|-3----------3-1-0-|-0----7----|-1-1-1-1-1-1-|

|-0----7----|-3----------------|-0----7----|-1-1-1-1-1-1-|

|---------------------|

|---------------------|

|-8--8--8--8--8--8----|

|-8--8--8--8--8--8----|

|-6--6--6--6--6--6----|

|---------------------|

Outro

Gtr I

|-----------------------|-----------------------|---------------|

|-----------------------|-----------------------|---------------|

|-----------------5-7-8-|-----------------5-7-8-|---------------|

|-----------5-7-8-------|-----------5-7-8-------|---------------|

|-----5-6-8-------------|-----5-6-8-------------|---------------|

|-0-0-------------------|-0-0-------------------|-0-0----0-0----|

|

| Gtr II

|-----------------------|-----------------------|---------------|

|-----------------------|-----------------------|---------------|

|-----------------------|-----------------------|---------------|

|-----------------------|-----------------------|---------------|

|-----------------------|-----------------------|---------------|

|-0-0-------------------|-0-0-------------------|-0-0----0-0----|

|--------------*|

|--------------*|

|--------------*|

|--------------*|

|--------------*|

|-(0)----------*|

|

|--------------*|

|--------------*|

|--------------*|

|--------------*|

|--------------*|

|-(0)----------*|

Tablature Legend

----------------

h - hammer-on

p - pull-off

b - bend

pb - pre-bend

r - bend release (if no number after the r, then release immediately)

/\\ - slide into or out of (from/to "nowhere")

s - legato slide

S - shift slide

Added by tabs-database.com and our distinguished partners

Get this song at:  amazon.com sheetmusicplus.com

Share your thoughts

0 Comments found