Machine Head

Machine Head - Only The Names guitar tab

"Only The Names" by Machine Head on Supercharger

Tabbed by Wicksickles

Drop-B Tuning

*=Natural Harmonic

*(This song has a solo in it. For the time being, I haven't tabbed it, sorry.)

Intro/Riff 1

C#-----------------------------|--------------------------4--

G#--5--------5------6-------3--|----5------5------6----------

E------------------------------|-----------------------------

B------2-2-----2-2-----2-2-----|-----2-2----2-2-----2-2------

F#-----------------------------|-----------------------------

B------------------------------|-----------------------------

Intro/Riff 2

C#------------------------------------------4------------------------------------

G#--5-----5-----6-----3-----5-----5-----6------5-----5-----6-----3-----5----5----

E--------------------------------------------------------------------------------

B-----2-2---2-2---2-2---2-2---2-2---2-2----------2-2---2-2---2-2-----------------

F#-----------------------------------------------------------------2h3---3-3--3-3

B--------------------------------------------------------------------------------

Intro/Riff 3 Cont.

C#-----------------

G#------3-------3--

E------------------

B------------------

F#--1-1----1-1-----

B------------------

Chorus/Riff 4

C#------------------------|------------------

G#------------------------|------------------

E----------------------*5-|------------------

B---2-2--3-0--2-2-3--*5---|2-2--3-0---2-2s1--

F#--2-2--3-0--2-2-3-------|2-2--3-0---2-2s1--

B---2-2--3-0--2-2-3-------|2-2--3-0---2-2s1--

Solo

Guitar 1

||------------------------|

||------------------------|

||-9-9-10-7---9-9-10-13---|

||------------------------|

||------------------------|

||------------------------|

Get this song at:  amazon.com sheetmusicplus.com

Share your thoughts

0 Comments found