Machine Head

Machine Head - Nothing Left guitar tab

Song: Nothing Left

Artist: Machine Head

Album: The Burning Red

------------------------------------------------------------------------------

------------------------------------------------------------------------------

------------------------------------------------------------------------------

-9---------9------------------------------------------------------------------

-8---------8------------------------------------------------------------------

---0---0-0---0---0-0-0h6-6-6--------------------------------------------------

------------------------------------------------------------------------------

------------------------------------------------------------------------------

------------------------------------------------------------------------------

------------------------------------------------------------------------------

------------------------------------------------------------------------------

--x\--\--\-x-/--/--/--/x-\--\--\----------------------------------------------

------------------------------------------------------------------------------

------------------------------------------------------------------------------

------------------------------------------------------------------------------

------------------------------------------------------------------------------

------------------------------------------------------------------------------

--3-3-1-1-3-3-4--4-4-4-4------------------------------------------------------

Pre Chorus

------------------------------------------------------------------------------

------------------------------------------------------------------------------

------------------------------------------------------------------------------

------------------------------------------------------------------------------

--8--2--5----6-------3--------------------------------------------------------

-/6--0--3----4---1-1-1--------------------------------------------------------

Chorus . .

------------------------------------------------------------------------------

------------------------------------------------------------------------------

--7-9-7-9-7-9-7-9-10-10-10-10-------------------------------------------------

------------------------------------------------------------------------------

-7---7---7---7----------------------------------------------------------------

------------------------------------------------------------------------------

Change All P.M.

------------------------------------------------------------------------------

------------------------------------------------------------------------------

------------------------------------------------------------------------------

--7/9-7/9-7/9-7/9-10101010----------------------------------------------------

--5/7-5/7-5/7-5/7-8-8-8-8-----------------------------------------------------

-0---0---0---0----------------------------------------------------------------

------------------------------------------------------------------------------

------------------------------------------------------------------------------

------------------------------------------------------------------------------

-5-5-5-3-3-3-5-5-5-3-3-5-6-6-6-6----------------------------------------------

------------------------------------------------------------------------------

------------------------------------------------------------------------------

Get this song at:  amazon.com sheetmusicplus.com

Share your thoughts

0 Comments found