Machine Head

Machine Head - Messgae In A Bottle bass tab

Artist: Machine Head

Song: Message in a bottle

~ = Let ring

/ = Slide

Standard tuning

Intro just guitar, Bass starts at 0.28

Verse 1 4th time play

G |-----------------|----------------------------------------------------|

D |-----------------|----------------------------------------------------|

A |-----------------|----------------------------------------------------|

E |--9-9~5~/7~3~--|--9-9~5~/7~~---------------------------------------|

Pre-chorus 1

G | --------------------------------------------------------------------|

D | --------------------------------------------------------------------|

A | --------------------------------------------------------------------|

E | --5~--9~--7~--------------------------------------------------------|

Chorus then play

G | ----------------------------|-----------------------------------------|

D | ----------------------------|-----------------------------------------|

A | ----------------------------|-----------------------------------------|

E | --9~--7-5-5-4-0-4--5-5-4-0--|--9~--7-5-5-4-0-2~-----------------------|

Verse 2

G | --------------------------------------------------------------------|

D | --------------------------------------------------------------------|

A | --------------------------------------------------------------------|

E | -9-9-9-95-5-5-5/7-7-7-73-3-3-3------------------------------------|

Pre-chorus 2

G | --------------------------------------------------------------------|

D | --------------------------------------------------------------------|

A | --------------------------------------------------------------------|

E | --5-5-5-5--9-9-9-9--7-7-7-7-----------------------------------------|

Chorus

Verse 2 (repeat 'til 3:15)

Get this song at:  amazon.com sheetmusicplus.com

Share your thoughts

0 Comments found