Machine Head

Machine Head - Message In A Bottle (the Police Cover) bass tab

Machine Head

Message in a bottle (The Police cover)

The Burning red

This is perfect ;) !

Intro/Verse

G |--------------------------------------------------------------------|

D |--------------------------------------------------------------------|

A |--------------------------------------------------------------------|

E |--9-9--5--7--2------------------------------------------------------|

Chorus Then

G | -----------|-------------------------------------------------------|

D | -----------|-------------------------------------------------------|

A | -----5--7--|--9--5-------------------------------------------------|

E | --5--------|-------------------------------------------------------|

Bridge

G | --------------|----------------------------------------------------|

D | --------------|----------------------------------------------------|

A | --------------|----------------------------------------------------|

E | --9--5--4--0--|--2-------------------------------------------------|

Get this song at:  amazon.com sheetmusicplus.com

Share your thoughts

0 Comments found