Machine Head

Machine Head - Message In A Bottle bass tab

You�ll have to forgive me for putting on 5 strings. I use 5 strings as default do here goes

Intro: (first verse)

G:6-6----------4----------------

D:------------7----------4------ x4

A:------------------------------

E:------------------------------

B:------------------------------

G:----------------------7-7-7-7-9-9-9-9|

D:-7-7-7-7-7-7-7-7---------------------| x2

A:-------------------------------------|

E:-------------------------------------|

B:-------------------------------------|

�I hope that someone gets my�

G:-----------------------------------|

D:---4-4-4-4-4-4-4-4-0-0-0-0-0-0-0-0-| x 3

Chorus:

�message in a bottle�

G:---6-----------|

D:------7---5p4--| x3

A:---------------|

E:---------------|

B:---------------|

2nd verse:

G:---6-6-6-6----------4-4-4-4----------|

D:-------------7-7-7-7---------4-4-4-4-|

A:-------------------------------------| X8

E:-------------------------------------|

B:-------------------------------------|

�Sending Out an SOS�

G:----------------------7-7-7-7-9-9-9-9|

D:-7-7-7-7-7-7-7-7---------------------|x2

A:-------------------------------------|

E:-------------------------------------|

B:-------------------------------------|

�I hope that someone gets my�

G:-----------------------------------|

D:---4-4-4-4-4-4-4-4-0-0-0-0-0-0-0-0-| x 3

A:-----------------------------------|

E:-----------------------------------|

B:-----------------------------------|

Chorus:

�message in a bottle�

G---6--------|

D:------7-5p4|

A:-----------| x3

E:-----------|

B:-----------|

scream...

G:---6-6-6-6----------4-4-4-4----------|

D:-------------7-7-7-7---------4-4-4-4-| x4

A:-------------------------------------|

E:-------------------------------------|

B:-------------------------------------|

sending out an s.o.s

G:---6-6-6-6----------4-4-4-4---------|

D:-------------7-7-7-7---------4-4-4-4| x8

A:------------------------------------|

E:------------------------------------|

B:------------------------------------|

I think This is right but I'm not entirely sure about the 5p4, it might be slightly lower than 4

Get this song at:  amazon.com sheetmusicplus.com

Share your thoughts

0 Comments found