Machine Head

Machine Head - Machine Mess guitar tab

DimebagDarrell66@hotmail.com

Machine Head

"Message In A Bottle"

The Burning Red

tabbed by: Derek Paul

D tuning (NOT Drop D)

Intro & verse 1: several times ...use chorus and tremelo

-----------------------------------------------

-----------------------------------------------

---------10--------------------8---------------

------8-------------11------6------------8/9---

---6-------------9------4-------------6--------

-------------7--------------------4------------

pre chorus: 2x ...slight distortion

-----------------------------------------

-----------------------------------------

-----------------------------------------

-------------------9-9-9-9-11-11-11-11---

---9-9-9-9-9-9-9-9-7-7-7-7-9--9--9--9----

---7-7-7-7-7-7-7-7-----------------------

Lyrics:(i send out an S.O.S.)

pre chorus cont.: 4x ...little bit heavier distortion

-------------------------------------

-------------------------------------

-------------------------------------

-------------------------------------

---6-6-6-6-6-6-6-6-2-2-2-2-2-2-2-2---

---4-4-4-4-4-4-4-4-0-0-0-0-0-0-0-0---

slight pm........................

lyrics:(in hope that someone finds my)

chorus: ...back to chorus and tremelo

---6----5--- ---4---

---6----5--- ---4---

---8----6--- ---4---

---8----7--- ---6---

---6----7--- ---6---

--------5--- 3x then ---4---

lyrics:(message in a bottle)

other verses: several times ...heavy distortion, hit the gas!!

-------------------------------------

-------------------------------------

-------------------------------------

---8-8-8-8---------6-6-6-6-----------

---6-6-6-6-9-9-9-9-4-4-4-4-6-6-6-6---

-----------7-7-7-7---------4-4-4-4---

pre chorus: 2x

-----------------------------------------

-----------------------------------------

-----------------------------------------

-------------------9-9-9-9-11-11-11-11---

---9-9-9-9-9-9-9-9-7-7-7-7-9--9--9--9----

---7-7-7-7-7-7-7-7-----------------------

pre chorus cont.: 4x

-------------------------------------

-------------------------------------

-------------------------------------

-------------------------------------

---6-6-6-6-6-6-6-6-2-2-2-2-2-2-2-2---

---4-4-4-4-4-4-4-4-0-0-0-0-0-0-0-0---

pm...............................

chorus: ...back to chorus and tremelo

---6----5--- ---4---

---6----5--- ---4---

---8----6--- ---4---

---8----7--- ---6---

---6----7--- ---6---

--------5--- 3x then ---4---

bridge: 4x ...fully distorted

-----------------------------

-----------------------------

-----------------------------

-----------------------------

---X~~~~~~~~~~~~~~~~~~~~~~---

---X~~~~~~~~~~~~~~~~~~~~~~--- long pick scrape

-----------------------------------------------

-----------------------------------------------

---------10--------------------8---------------

------8-------------11------6------------8/9---

---6-------------9------4-------------6--------

-------------7--------------------4------------

pm..........................................

outro: several times

------------------------------------- -------

------------------------------------- -------

------------------------------------- -------

---8-8-8-8---------6-6-6-6----------- ---6---

---6-6-6-6-9-9-9-9-4-4-4-4-6-6-6-6--- ---4---

-----------7-7-7-7---------4-4-4-4--- end on this note ------- fade...

well there you go kiddies!! that's the whole song tabbed out! took a lil'

bit to do, but i got it done. this is a really killer song to begin with,

and Machine Head's version is so sweet. it just throws down hard!! the

song is arranged from beginning till end, everything is there except the

little blues licks that go with the chorus. have fun and keep bangin your

head!!

Get this song at:  amazon.com sheetmusicplus.com

Share your thoughts

0 Comments found