Machine Head

Machine Head - Left Unfinished Solo guitar tab

Author/Artist: Machine Head

Title: Left Unfinished / Solo

Album: Through the Ashes of Empire

Email: deadisalive@grindcore.net

Tuning: B F# B E G# C#

Legend:

h = Hammer on / = Slide Down

p = Pull of = Slide Up

b = Bend v = Vibrato

r = Release Bend x = Muted Note

= Natural Harmonic T = Tap

5* = Pinch Harmonic . = Palm Mute

here's the solo to Left Unfinished. it's a very easy solo because there only a

few bends and nothing difficult. the whole solo is played with a wah

to get the correct sound of these notes, start with toe up and the push your

feet down

-------------------------10b~~~---------14b~~~--------------------------------|

------------------------------------------------------------------------------|

-5b~~~~~-----12b~~~~----------------------------------------------------------|

------------------------------------------------------------------------------|

------------------------------------------------------------------------------|

------------------------------------------------------------------------------|

here's the same but faster than above

-------------10b~------------14b~----------15h17p15-17h19p17-19h21p19-23b-----|

--12b12b12b-------12b12b12b--------12b13b-------------------------------------|

------------------------------------------------------------------------------|

------------------------------------------------------------------------------|

------------------------------------------------------------------------------|

------------------------------------------------------------------------------|

Get this song at:  amazon.com sheetmusicplus.com

Share your thoughts

0 Comments found