Machine Head

Machine Head - Imperium bass tab

!

Machine Head (I have made modifications to this tab and now it sounds alot better! and

i have sorted out the verse aswell so now it sounds perfect

Imperium

Through the ashes of empires

Tabbed by: Adam Williams, Machinevayne11

Tuning: (B, F#, B, E, ) ENJOY!

If question marks appear, its not cos the notes are dodgy, its a problem with mxtabs,

dunno y its happenin cos i didnt put them in, but they might not occur, soz if they do

Intro (part 1): x1

|---------------------------------------------------------|

|---------------------------------------------------------|

|---------------------------------------------------------|

|-0-2~~~~~~~~~~~0-2~~~~~~~~~~~0-2~~~~~~~~~~~0-2~~~~~~~~~~~|

Intro (part 2): x1

|---------------------------------------------------------|

|---------------------------------------------------------|

|---------------------------------------------------------|

|-0-2~~~~-------0-2~~~~-------0-2~~~~-------0-2~~~~-------|

Intro (part 3): x4

|-----------------------------------------------------------|

|-----------------------------------------------------------|

|-----------------------------------------------------------|

|-2-2-2-2---2-2-2-2---2-2-2-2---2-2-2-2---2-2-2-2-2-2-2-2---|

Verse (THE Riff!): x4 HEAR ME NOW!

|------------------------------------------------------

|------------------------------------------------------

|----------------------------------------------------2~

|-2--0-0-0-0h2-0-0-0-2p0-0-0--2--0-0-0-0h2-0-0-0-0----

-------------------------------------------------------7-7-4----------|

------------------------------3-3-3-------6-6-6-3-3-3-----------------|

------------------------------------5-5-5-----------------------------|

2--0-0-0-0h2-0-0-0-0--2p0-0-0-----------------------------------------|

Verse interlude: x1

|----------------------------------------------------|

|----------------------------------------------------|

|--7/5-5-5--7/5-5-5--7/5-5--5/3-3-3--5/3-3-3--5/3-3--|

|----------------------------------------------------|

Verse: x1

Verse interlude: x1

Pre-Chorus: x1

|------------------------------------|

|------------------------------------|

|------------------------------------|

|-0-2---3-2---0-2--3-3-3-3-3-3-3-3---|

Chorus: x2

|-----------------------------------------------------------------------|

|-----------------------------------------------------------------------|

|-----------------------------------------------------------------------|

|-0-2---2-3-2---2-0-2---2-3-2---0-2---2-3-2---2/8-8--5-5-7-7/5----------|

Intro (part 3): x1.5

Verse: x2

Verse interlude: x1

Verse: x1

Verse Interlude: x1

Pre-Chorus: x1

Chorus: x2

Breakdown (part 1): x1

|-------|

|-------|

|-------|

|-0~~~~~|

Breakdown Part 2: x2

|-----------------------------------------|

|-----------------------------------------|

|-----------------------------------------|

|-0~-1---0~-1----0~-1----6-3-4--1-4-3-----|

Breakdown part 3: x2

|-----------------------------------------------------------------|

|-----------------------------------------------------------------|

|-----------------------------------------------------------------|

|-000-000-000-000-000-000-333-444-000-000-000-000--6-3-4--1-4-3---|

Breakdown part 2: x2

Breakdown part 4: x1

|------------------------------------|

|------------------------------------|

|------------------------------------|

|-2~~~~~~~~~~~~~~~~------------------|

Beakdown Part 5:

|------------|

|------------|

|-0~~~~3~~~~~|

|------------|

Solo Part 1: x2

|------------------------------------|

|------------------------------------|

|--------------------.--.--.--.------|

|-2-2---2-2---2-2----2--2--2--2------|

Solo part 2: x1

|------------------------------------|

|--------------------.--.--.--.------|

|-0-0---0-0---0-0----0--0--0--0------|

|------------------------------------|

Solo Part 3: x1

|--------------------5-3-2-0---------| (after watching the studio dvd

|----------------------------5-4-2-0-| i am sure this is correct)

|-3-3---3-3---3-3--------------------|

|------------------------------------|

Solo part 1: x2

Solo part 2: x1

Solo part 3: x1

Solo part 1: x2

Solo part 2: x1

fill: x1

|------------------|

|------------------|

|-10--10--10----| (very fast slides)

|------------------|

Breakdown part 6: x4

|-------------------|----|----|--------------|

|-------------------|----|----|--------------|

|-------------------|----|----|-1-1-1--------|

|-0-2-0-22222222----|----|----|-------1-1-1--|

|-------------------|

|-------------------|

|--1?-1?-1----------|

|----------1?-1--1--|

Outro: x2

|------------------------|-----|-----|-------------------|

|------------------------|-----|-----|-------------------|

|---^--------------------|-----|-----|-1?-1?-1-----------|

|-0-1--0-2-2-2-2-2-2-2-2-|-----|-----|----------1?-1?-1--|

Intro part 1: x1

People say this tab is wrong and it probably is dodgy in places but i would like to see other

people tab it ans see wjat they can come up with.

Taken from The BassMasta -- http://www.tabs-database.com

Get this song at:  amazon.com sheetmusicplus.com

Share your thoughts

0 Comments found