Machine Head

Machine Head - Imperium Bass guitar tab

Machine Head - Imperium

Tabbed by Sambrittain

Tuning low to high: B, F#, B, E

Right ill tell the riffs but i cant be bothered doin the timing so work it for yourself!

Intro

|--------------------------------------------|

|--------------------------------------------|

|--------------------------------------------|

|--0--2--------------------------------------|

|-------------------------------------------------------|

|-------------------------------------------------------|

|-------------------------------------------------------|

|--2-2-2-2--2-2-2-2--2-2-2-2--2-2-2-2--2-2-2-2-2-2-2-2--|

Verse!

|-----------------------------------|

|--2p0------------------------------|

|--------------5p3------------------|

|------2-2-2-2-----2-2-2-2-5p2-2-2--|

|-----------------------------------|

|--2p0------------------------------|

|-------------5p3----------3'-------|

|------2-2-2-2----2-2-2-2-----------|

|-----------------------------------|

|-----------------------------------|

|--2p0------------------------------|

|--------------5p3------------------|

|------2-2-2-2-----2-2-2-2-5p2-2-2--|

|--------------------------7-7-4--|

|--3-3-3-0-0-0-6-6-6-3-3-3--------|

|---------------------------------|

|---------------------------------|

|--------------------------------|

|--------------------------------|

|--7\\5--5--5-7\\5--5--5-7\\5--5-5--|

|--------------------------------|

|--------------------------------|

|--------------------------------|

|--5\\3--3--3-5\\3--3--3-5\\3--3-3--|

|--------------------------------|

Chorus!

|------------------------------------------------|

|------------------------------------------------|

|------------------------------------------------|

|--0-2--------3-2-------0-2-------3-3-3-3-3-3-3--|

|-------5---------5---------5---------5---------5---------5-------|

|-----------------------------------------------------------------|

|-----------------------------------------------------------------|

|--0-2-----2-3-2-----2-0-2-----2-3-2-----2-0-2-----2-3-2-----2-0--|

|-----------------|

|-----------------|

|-----------------|

|--8-8-5-5-6-6-3--|

|-------------------------------------------------------|

|-------------------------------------------------------|

|-------------------------------------------------------|

|--2-2-2-2--2-2-2-2--2-2-2-2--2-2-2-2--2-2-2-2-2-2-2-2--|

|--------------------------------------|

|--------------------------------------|

|--------------------------------------|

|--2-2-2-2--2-2-2-2--2-2-2-2--2-2-2-2--|

Yeah then its the really long umm bit?

|-------|

|-------|

|-------|

|--0----|

|--------------x----|

|---------------x---|

|----------------x--|

|--0-----1--------x-|

|--------------------|

|--------------------|

|--------------------|

|--6--3--4--1--2--1--|

|---------------------------------------------------------|

|---------------------------------------------------------|

|---------------------------------------------------------|

|-0-0-0--0-0-0--0-0-0--0-0-0--0-0-0--0-0-0--3-3-3--4-4-4--|

|-----------------------------------------------|

|-----------------------------------------------|

|-----------------------------------------------|

|-0-0-0--0-0-0--0-0-0--0-0-0--6--3--4--1--2--1--|

|---------------x-----|

|----------------x----|

|---------6-------x---|

|--0---------------x--|

|--------------------|

|--------------------|

|--------------------|

|--6--3--4--1--2--1--|

|---------------x-----|

|----------------x----|

|---------6-------x---|

|--0---------------x--|

|---------------------------------|

|---------------------------------|

|---------------------------------|

|--2-2----------------------------|

|--------------------|

|--------------------|

|--------------------|

|--6--3--4--1--2--1--|

|-----------5---|

|---------------|

|---------------|

|--2------------|

|--------------------|

|--------------------|

|--7----9---10---12--|

|--------------------|

|---------------------------------|

|---------------------------------|

|---------------------------------|

|--2-2----------------------------|

|---------------------------------|

|---------------------------------|

|--0------------------------------|

|---------------------------------|

|-----------------------------------|

|-----------------------------------|

|--3--------------------------------|

|-----------------------x\\----------|

then we kick in!

|------------------5---4----------|

|------2-------------------4---5--|

|------------5--------------------|

|--2-2---2-2---2-2---2---2---2----|

|------------------4---2----------|

|------5-----4-------------5---4--|

|--0-0---0-0---0-0---0---0---0----|

|---------------------------------|

|-----------------10-8--5-4-8-5-4-2--|

|------5-----4-----------------------|

|--3-3---3-3---3-3-------------------|

|------------------------------------|

|------------------13-12-10-7-12-10-7-5-10-----7-5-4-7-5-4---5-4-----4------

|------5-----4---------------------------------------------7-----7-5---7-5-4

|--3-3---3-3---3-3----------------------------------------------------------

|---------------------------------------------------------------------------

|------------------------------|

|------------------------------|

|------------------------------|

|--0--2--0--3-2-2-2-2-2-2-2-2--|

|---------------|

|---------------|

|--1-1-1--------|

|--------1-1-1--|

|------------------------------|

|------------------------------|

|------------------------------|

|--0--2----0--3-2-2-2-2-2-2-2--|

|--------------------------------------------|

|--------------------------------------------|

|--------------------------------------------|

|--0--2--------------------------------------|

u now survived the super hard riffage that is imperium

i dunno about u but my arm hurts!

Added by tabs-database.com and our distinguished partners

Get this song at:  amazon.com sheetmusicplus.com

Share your thoughts

0 Comments found