Machine Head

Machine Head - From This Day 3 guitar tab

Band: Machine Head

Song: From This Day

Album: The Burning Red

Tuning: drop B - low to high - B F# B E G# C#

Transcribed by Mark Kerry

E-mail markkerry_uk@yahoo.co.uk

key

b = bend

r = release

/ = slide up

= slide down

h = hammer on

p = pull off

~ = vibrato

x = mute string(s)

NH = Natural Harmonics

guitar1 = Robert Flyn (rythem)

guitar2 = Ahrue Luster (lead)

To play this song you will need a wah wah pedal and your guitar

tuned to Drop B

intro

guitar2 w/wah wah

|------------------------------------------------------------------|

|-----------------------------------(feedback)---------------------|

|------------------------------------------------------------------|

|------------------------------------------------------------------|

|------------------------------------------------------------------|

|------------------------------------------------------------------|

guitar1

|------------------------------------------------------------------|

|------------------------------------------------------------------|

|------------------------------------------------------------------|

|------------------------------------------------------------------|

|------------------0--------------0--------------0-----------------|

|------------------0--------------0--------------0-----------------|

| |

|guitar2 w/wah wah |

|------------------------------------------------------------------|

|-----------------------------------------------------------9b10r9-|

|-----8-7---7-5-------8-7---7-6~----8-7---7-5------8-7---7---------|

|---------8-----6---------8-------------8-----6--------8-----------|

|--0---------------0--------------0--------------0-----------------|

|--0---------------0--------------0--------------0-----------------|

guitar 1

|------------------------------------------------------------------|

|------------------------------------------------------------------|

|------------------------------------------------------------------|

|------------------------------------------------------------------|

|------------------0--------------0--------------0-----------------|

|------------------0--------------0--------------0-----------------|

| get up |

|guitar2 w/wah wah |

|------------------------------------------------------------------|

|-----------------------------------------------------------9b10r9-|

|-----8-7---7-5-------8-7---7-6~----8-7---7-5------8-7---7---------|

|---------8-----6---------8-------------8-----6--------8-----------|

|--0---------------0--------------0--------------0-----------------|

|--0---------------0--------------0--------------0-----------------|

guitar1 w/wah wah

|------------------------------------------------------------------|

|-----------------------------------------------------------9b10r9-|

|-----8-7---7-5-------8-7---7-6~----8-7---7-5------8-7---7---------|

|---------8-----6---------8-------------8-----6--------8-----------|

|--0---------------0--------------0--------------0-----------------|

|--0---------------0--------------0--------------0-----------------|

| |

|gutar2 w/wah wah |

|------------------------------------------------------------------|

|-----------------------------------------------------------9b10r9-|

|-----8-7---7-5-------8-7---7-6~----8-7---7-5------8-7---7---------|

|---------8-----6---------8-------------8-----6--------8-----------|

|--0---------------0--------------0--------------0-----------------|

|--0---------------0--------------0--------------0-----------------|

guitar1 w/wah wah

|------------------------------------------------------------------|

|------------------------------------------------------------------|

|-----8-7---7-5-------8-7---7-6~----8-7---7-5------8-7-------------|

|---------8-----6---------8-------------8-----6--------8-----------|

|--0---------------0--------------0--------------0-----------------|

|--0---------------0--------------0--------------0-------(scratch)-|

| one, two, three, four |

|guitar2 w/wah wah |

|------------------------------------------------------------------|

|------------------------------------------------------------------|

|-----8-7---7-5-------8-7---7-6~----8-7---7-5------8-7-------------|

|---------8-----6---------8-------------8-----6--------8-----------|

|--0---------------0--------------0--------------0-------12---1--|

|--0---------------0--------------0--------------0-------12---1--|

guitar1&2

|------------------------------------------------------------------|

|------------------------------------------------------------------|

|------------------------------------------------------------------|

|------------------------------------------------------------------|

|--0--0--0-0--0--0-0--0--0-1-4-4---0--0--0-0--0--0-0--0--0-1-4-4---|

|--0--0--0-0--0--0-0--0--0-1-4-4---0--0--0-0--0--0-0--0--0-1-4-4---|

guitar1&2

|------------------------------------------------------------------|

|------------------------------------------------------------------|

|------------------------------------------------------------------|

|------------------------------------------------------------------|

|--0--0--0-0--0--0-0--0--0-1-4-4---0--0--0-0--0--0-0-3-2-1-0-3-2-1-|

|--0--0--0-0--0--0-0--0--0-1-4-4---0--0--0-0--0--0-----------------|

guitar1&2

|------------------------------------------------------------------|

|------------------------------------------------------------------|

|------------------------------------------------------------------|

|------------------------------------------------------------------|

|--0--0--0-0--0--0-0--0--0-1-4-4---0--0--0-0--0--0-0--0--0-1-4-4---|

|--0--0--0-0--0--0-0--0--0-1-4-4---0--0--0-0--0--0-0--0--0-1-4-4---|

guitar1&2

|------------------------------------------------------------------|

|------------------------------------------------------------------|

|------------------------------------------------------------------|

|------------------------------------------------------------------|

|--0--0--0-0--0--0-0--0--0-1-4-4---0--0--0-0--0--0-0-3-2-1-0-3-2-1-|

|--0--0--0-0--0--0-0--0--0-1-4-4---0--0--0-0--0--0-----------------|

yeh yeh yeh yeh

verse

guitar1

|------------------------------------------------------------------|

|------------------------------------------------------------------|

|------------------------------------------------------------------|

|------------------------------------------------------------------|

|---0----0--0------0----0--0-------0----0--0------0----0--0--------|

|---0----0--0------0----0--0-------0----0--0------0----0--0--------|

|You gotta, Stand tall and cut away the ties, Drop walls and hold |

|that head high, The world is fast and youth ain't gonna wait, So |

|grab a hold before it gets too late |

| |

|guitar2 |

|------------------------------------------------------------------|

|------4------4-------4-------4-------4-------4-------4-------4----|

|----4---4--4---4---4---4---4---4---4---4---4---4---4---4---4---4--|

|--4------4-------4-------4-------4-------4-------4-------4------4-|

|------------------------------------------------------------------|

|------------------------------------------------------------------|

NH---------------------------------------------------------------

this is played very quietly in the background

guitar1

|------------------------------------------------------------------|

|------------------------------------------------------------------|

|------------------------------------------------------------------|

|------------------------------------------------------------------|

|---0----0--0------0----0--0-------0----0--0------0----0--0--------|

|---0----0--0------0----0--0-------0----0--0------0----0--0--------|

|Bare your soul and strip away the cold, Of withered life that past|

|so grey and old Cause all the pain that's filled these eyes you |

|see Has only made them bleed just recently |

| |

|guitar2 w/wah wah |

|------------------------------------------------------------------|

|------------------------------------------------------------------|

|-----x-3-3p2-3-3-2------5h6---------x-3-3p2-3-3-2------5h6--------|

|------------------------------------------------------------------|

|------------------------------------------------------------------|

|---0-----------------------------0--------------------------------|

guitar1

|----------------------------------------------0--0----------------|

|----------------------------------------------0--0----------------|

|----------------------------------------------0--0----------------|

|----------------------------------------------0--0----------------|

|---0----0--0------0----0--0-------0----0--0---0--0---12---1-----|

|---0----0--0------0----0--0-------0----0--0---0--0---12---1-----|

|Tears that made me, Ashamed to be me But that gave me strength to |

|see me, Made a spark that, Let the dark and let me shine, |

| |

|guitar2 w/wah wah |

|----------------------------------------------0--0----------------|

|----------------------------------------------0--0----------------|

|-----x-3-3p2-3-3-2------5h6---------x-3-3p2---0--0----------------|

|----------------------------------------------0--0----------------|

|----------------------------------------------0--0----------------|

|---0------------------------------0-----------0--0---(scratch)----|

chorus

guitar1&2

|------------------------------------------------------------------|

|------------------------------------------------------------------|

|------------------------------------------------------------------|

|------------------------------------------------------------------|

|---0--0--0-0-0--0-0-0--0-1-4-4---1--1--1-1-1--1-1-1--1-1-4-4------|

|---0--0--0-0-0--0-0-0--0-1-4-4---1--1--1-1-1--1-1-1--1-1-4-4------|

time to see believe this in me

|------------------------------------------------------------------|

|------------------------------------------------------------------|

|------------------------------------------------------------------|

|------------------------------------------------------------------|

|---6--6--6-6-6--6-6-6--6-6-5-5--8--8--8-8-8--8-9--9--9-9-9--9-----|

|---6--6--6-6-6--6-6-6--6-6-5-5--8--8--8-8-8--8-9--9--9-9-9--9-----|

this pain that i feel deep inside...........

guitar1&2

|------------------------------------------------------------------|

|------------------------------------------------------------------|

|------------------------------------------------------------------|

|------------------------------------------------------------------|

|---0--0--0-0-0--0-0-0--0-1-4-4---1--1--1-1-1--1-1-1--1-1-4-4------|

|---0--0--0-0-0--0-0-0--0-1-4-4---1--1--1-1-1--1-1-1--1-1-4-4------|

time to see believe this in me

|------------------------------------------------------------------|

|------------------------------------------------------------------|

|------------------------------------------------------------------|

|------------------------------------------------------------------|

|---6--6--6-6-6--6-6-6--6-6-5-5--8--8--8-8-8--8-9--9--9-9-9--9-----|

|---6--6--6-6-6--6-6-6--6-6-5-5--8--8--8-8-8--8-9--9--9-9-9--9-----|

this pain that i feel deep inside...........

second verse

guitar1

|------------------------------------------------------------------|

|------------------------------------------------------------------|

|------------------------------------------------------------------|

|------------------------------------------------------------------|

|------------------------------------------------------------------|

|------------------------------------------------------------------|

|Cause it's time we come together Be on because I'm about it now |

|So do it now or never |

| |

|guitar2 w/wah wah |

|------------------------------------------------------------------|

|------------------------------------------------------------------|

|-----x-3-3p2-3-3-2------5h6---------x-3-3p2-3-3-2------5h6--------|

|------------------------------------------------------------------|

|------------------------------------------------------------------|

|---0-----------------------------0--------------------------------|

guitar1

|------------------------------------------------------------------|

|------------------------------------------------------------------|

|------------------------------------------------------------------|

|------------------------------------------------------------------|

|---0----0--0------0----0--0-------0----0--0------0----0--0--------|

|---0----0--0------0----0--0-------0----0--0------0----0--0--------|

|I fall asleep to freeways far from here Spend half the night just |

|drinking beer From this day on shall be the words My flesh and |

|bone shall make it heard |

| |

|guitar2 |

|------------------------------------------------------------------|

|------4------4-------4-------4-------4-------4-------4-------4----|

|----4---4--4---4---4---4---4---4---4---4---4---4---4---4---4---4--|

|--4------4-------4-------4-------4-------4-------4-------4------4-|

|------------------------------------------------------------------|

|------------------------------------------------------------------|

NH---------------------------------------------------------------

guitar1

|-----------------------------------------------0--0---------------|

|-----------------------------------------------0--0---------------|

|-----------------------------------------------0--0---------------|

|-----------------------------------------------0--0---------------|

|---0----0--0------0----0--0-------0----0--0----0--0---12---1----|

|---0----0--0------0----0--0-------0----0--0----0--0---12---1----|

|Don't you test I'll have to mess with you Do my best so fuck the |

|rest of you One of these days you'll see I've always been right |

|RIGHT |

| |

|guitar2 w/wah wah |

|-----------------------------------------------0--0---------------|

|-----------------------------------------------0--0---------------|

|-----x-3-3p2-3-3-2------5h6---------x-3-3p2----0--0---------------|

|-----------------------------------------------0--0---------------|

|-----------------------------------------------0--0---------------|

|--0-------------------------------0------------0--0---(scratch)---|

chorus

guitar1&2

|------------------------------------------------------------------|

|------------------------------------------------------------------|

|------------------------------------------------------------------|

|------------------------------------------------------------------|

|---0--0--0-0-0--0-0-0--0-1-4-4---1--1--1-1-1--1-1-1--1-1-4-4------|

|---0--0--0-0-0--0-0-0--0-1-4-4---1--1--1-1-1--1-1-1--1-1-4-4------|

time to see believe this in me

|------------------------------------------------------------------|

|------------------------------------------------------------------|

|------------------------------------------------------------------|

|------------------------------------------------------------------|

|---6--6--6-6-6--6-6-6--6-6-5-5--8--8--8-8-8--8-9--9--9-9-9--9-----|

|---6--6--6-6-6--6-6-6--6-6-5-5--8--8--8-8-8--8-9--9--9-9-9--9-----|

this pain that i feel deep inside...........

guitar1&2

|------------------------------------------------------------------|

|------------------------------------------------------------------|

|------------------------------------------------------------------|

|------------------------------------------------------------------|

|---0--0--0-0-0--0-0-0--0-1-4-4---1--1--1-1-1--1-1-1--1-1-4-4------|

|---0--0--0-0-0--0-0-0--0-1-4-4---1--1--1-1-1--1-1-1--1-1-4-4------|

time to see believe this in me

|------------------------------------------------------------------|

|------------------------------------------------------------------|

|------------------------------------------------------------------|

|------------------------------------------------------------------|

|---6--6--6-6-6--6-6-6--6-6-5-5--8--8--8-8-8--8-9--9--9-9-9--9-----|

|---6--6--6-6-6--6-6-6--6-6-5-5--8--8--8-8-8--8-9--9--9-9-9--9-----|

this pain that i feel deep inside...........

fill

guitar1

|------------------------------------------------------------------|

|------------------------------------------------------------------|

|------------------------------------------------------------------|

|------------------------------------------------------------------|

|------------------------------------------------------------------|

|------------------------------------------------------------------|

| uugh |

|guitar2 w/wah wah |

|------------------------------------------------------------------|

|------------------------------------------------------------------|

|------------------------------------------------------------------|

|---3-3-3-3--3-3-3-3--3-3-3-3--3-3-3-3-----------------------------|

|------------------------------------------------------------------|

|------------------------------------------------------------------|

NH---------------------------------

bridge

guitar1&2

|------------------------------------------------------------------|

|------------------------------------------------------------------|

|------------------------------------------------------------------|

|------------------------------------------------------------------|

|---0-1-2--0-1-3--0-1-2--0-1-3--0-1-2--0-1-3--0-/6-0-/6-3-2--------|

|---0-1-2--0-1-3--0-1-2--0-1-3--0-1-2--0-1-3--0-/6-0-/6-3-2--------|

guitar1&2

|------------------------------------------------------------------|

|------------------------------------------------------------------|

|------------------------------------------------------------------|

|------------------------------------------------------------------|

|---0-1-2--0-1-3--0-1-2--0-1-3--0-1-2--0-1-3--0-/6-0-/6-3-2--------|

|---0-1-2--0-1-3--0-1-2--0-1-3--0-1-2--0-1-3--0-/6-0-/6-3-2--------|

guitar1

|------------------------------------------------------------------|

|------------------------------------------------------------------|

|------------------------------------------------------------------|

|------------------------------------------------------------------|

|---0-1-2--0-1-3--0-1-2--0-1-3--0-1-2--0-1-3--0-/6-0-/6-3-2--------|

|---0-1-2--0-1-3--0-1-2--0-1-3--0-1-2--0-1-3--0-/6-0-/6-3-2--------|

| i can feel, this pain is reel, i never wanted anything from you |

| |

|guitar2 |

|------------------------------------------------------------------|

|------------------------------------------------------------------|

|------------------------------------------------------------------|

|------------------------------------------------------------------|

|---0-1-2--0-1-3--0-1-2--0-1-3--0-1-2--0-1-3--0-/6-0-/6-3-2--------|

|---0-1-2--0-1-3--0-1-2--0-1-3--0-1-2--0-1-3--0-/6-0-/6-3-2--------|

guitar1

|------------------------------------------------------------------|

|------------------------------------------------------------------|

|------------------------------------------------------------------|

|------------------------------------------------------------------|

|--0---------------0--------------0--------------0-----------------|

|--0---------------0--------------0--------------0-----------------|

| oooooooooooooooh hooooooooooooo |

|guitar2 w/wah wah |

|------------------------------------------------------------------|

|------------------------------------------------------------------|

|-----8-7---7-5-------8-7---7-6~----8-7---7-5------8-7---7-6~------|

|---------8-----6---------8-------------8-----6--------8-----------|

|--0---------------0--------------0--------------0-----------------|

|--0---------------0--------------0--------------0-----------------|

guitar1

|------------------------------------------------------------------|

|------------------------------------------------------------------|

|------------------------------------------------------------------|

|------------------------------------------------------------------|

|------------------------------------------------------------------|

|------------------------------------------------------------------|

|And it makes me glad, When I see the sun And makes me sad, When |

|you fell on my one |

| |

|guitar2 w/wah wah |

|------------------------------------------------------------------|

|-----------------------------------------------------------9b10r9-|

|-----8-7---7-5-------8-7---7-6~----8-7---7-5------8-7---7---------|

|---------8-----6---------8-------------8-----6--------8-----------|

|--0---------------0--------------0--------------0-----------------|

|--0---------------0--------------0--------------0-----------------|

guitar1

|------------------------------------------------------------------|

|------------------------------------------------------------------|

|---------------------------------------------------(feedback)-----|

|------------------------------------------------------------------|

|------------------------------------------------------------------|

|------------------------------------------------------------------|

|And i thank my god, Got a girl like you And i think my god |

|Did you save me? |

| |

|guitar2 w/wah wah |

|------------------------------------------------------------------|

|-----------------------------------------------------------9b10r9-|

|-----8-7---7-5-------8-7---7-6~----8-7---7-5------8-7---7---------|

|---------8-----6---------8-------------8-----6--------8-----------|

|--0---------------0--------------0--------------0-----------------|

|--0---------------0--------------0--------------0-----------------|

chorus

guitar1&2

|------------------------------------------------------------------|

|------------------------------------------------------------------|

|------------------------------------------------------------------|

|------------------------------------------------------------------|

|---0-----------------------------1--1--1-1-1--1-1-1--1-1-4-4------|

|---0-----------------------------1--1--1-1-1--1-1-1--1-1-4-4------|

time to see believe this in me

|------------------------------------------------------------------|

|------------------------------------------------------------------|

|------------------------------------------------------------------|

|------------------------------------------------------------------|

|---6--6--6-6-6--6-6-6--6-6-5-5--8--8--8-8-8--8-9--9--9-9-9--9-----|

|---6--6--6-6-6--6-6-6--6-6-5-5--8--8--8-8-8--8-9--9--9-9-9--9-----|

this pain that i feel deep inside...........

guitar1&2

|------------------------------------------------------------------|

|------------------------------------------------------------------|

|------------------------------------------------------------------|

|------------------------------------------------------------------|

|---0--0--0-0-0--0-0-0--0-1-4-4---1--1--1-1-1--1-1-1--1-1-4-4------|

|---0--0--0-0-0--0-0-0--0-1-4-4---1--1--1-1-1--1-1-1--1-1-4-4------|

time to see believe this in me

|------------------------------------------------------------------|

|------------------------------------------------------------------|

|------------------------------------------------------------------|

|------------------------------------------------------------------|

|---6--6--6-6-6--6-6-6--6-6-5-5--8--8--8-8-8--8-9--9--9-9-9--9-----|

|---6--6--6-6-6--6-6-6--6-6-5-5--8--8--8-8-8--8-9--9--9-9-9--9-----|

this pain that i feel deep inside...........

guitar1&2

|------------------------------------------------------------------|

|------------------------------------------------------------------|

|------------------------------------------------------------------|

|------------------------------------------------------------------|

|---0--0--0-0-0--0-0-0--0-1-4-4---1--1--1-1-1--1-1-1--1-1-4-4------|

|---0--0--0-0-0--0-0-0--0-1-4-4---1--1--1-1-1--1-1-1--1-1-4-4------|

time to see believe this in me

|------------------------------------------------------------------|

|------------------------------------------------------------------|

|------------------------------------------------------------------|

|------------------------------------------------------------------|

|---6--6--6-6-6--6-6-6--6-6-5-5--8--8--8-8-8--8-9--9--9-9-9--9-----|

|---6--6--6-6-6--6-6-6--6-6-5-5--8--8--8-8-8--8-9--9--9-9-9--9-----|

this pain that i feel deep inside...........

guitar1&2

|------------------------------------------------------------------|

|------------------------------------------------------------------|

|------------------------------------------------------------------|

|------------------------------------------------------------------|

|---0--0--0-0-0--0-0-0--0-1-4-4---1--1--1-1-1--1-1-1--1-1-4-4------|

|---0--0--0-0-0--0-0-0--0-1-4-4---1--1--1-1-1--1-1-1--1-1-4-4------|

time to see believe this in me

|------------------------------------------------------------------|

|------------------------------------------------------------------|

|------------------------------------------------------------------|

|------------------------------------------------------------------|

|---6--6--6-6-6--6-6-6--6-6-5-5--8--8--8-8-8--8-9--9--9-9-9--9-----|

|---6--6--6-6-6--6-6-6--6-6-5-5--8--8--8-8-8--8-9--9--9-9-9--9-----|

this pain that i feel deep in side...........

outro

guitar1&2

|------------------------------------------------------------------|

|------------------------------------------------------------------|

|------------------------------------------------------------------|

|------------xx-xx-xx-xx-------------------------------------------|

|---3--1--0--xx-xx-xx-xx-1--5--0-----------------------------------|

|---3--1--0--xx-xx-xx-xx-1--5--0-----------------------------------|

Get this song at:  amazon.com sheetmusicplus.com

Share your thoughts

0 Comments found