Machine Head

Machine Head - Desire To Fire bass tab

Machine Head

Desire to Fire

The Burning Red

Tabbed by: Adam Williams, machinevayne11

Tuning: standard 5 string B, E, A, D, G

If question marks appear, its not cos the notes are dodgy, its a problem with mxtabs,

dunno y its happenin cos i didnt put them in, but they might not occur, soz if they do

Intro: x3

|-----------------------------------------------------------------|

|-----------------------------------------------------------------|

|-----------------------------------------------------------------|

|-----------------------------------------------------------------|

|-3-6-6-6-3-6-6-6-0~----------------------------------------------|

Chorus: x3

|----------------------------|-----|-----|------------------------|

|----------------------------|-----|-----|------------------------|

|----------------------------|-----|-----|------------------------|

|----------------------------|-----|-----|------------------------|

|-0----1----4----0--0-1----4-|-----|-----|------------------------|

.

|-----------------------------------------------------------------|

|-----------------------------------------------------------------|

|-----------------------------------------------------------------|

|-----------------------------------------------------------------|

|-0----1----4---4/6-6-6-3/6-6-6-----------------------------------|

Verse x2

|--------------------------------|-----|-----|--------------------|

|--------------------------------|-----|-----|--------------------|

|--------------------------------|-----|-----|--------------------|

|--8-----------------------------|-----|-----|--------------------|

|----0?-0---0-0-3p0?-0-5p0?-0-0--|-----|-----|--------------------|

|-----------------------------------------------------------------|

|-----------------------------------------------------------------|

|-----------------------------------------------------------------|

|--8--------------------------------------------------------------|

|----0--0--0-0-3h5-5-5-5h6-6-6------------------------------------|

Pre-chorus (before first chorus only): x1

|-----------------------------------------------------------------|

|-----------------------------------------------------------------|

|-----------------------------------------------------------------|

|-----------------------------------------------------------------|

|-3/5-5----5/6-6-6----3/5-5---------------------------------------|

Chorus: x2

Verse: x2

Pre-Chorus (before second chorus only): x

|---------------------|-----|-----|---------------------------|

|---------------------|-----|-----|---------------------------|

|---------------------|-----|-----|---------------------------|

|---------------------|-----|-----|---------------------------|

|-3/5-5----5/6-6-6----|-----|-----|-3/5-5---------------------|

Chorus: x2

Interlude:

|------------------------------------------------------------------|

|------------------------------------------------------------------|

|------------------------------------------------------------------|

|------------------------------------------------------------------|

|-5~---------------------------------------------------------------|

|--------------------------------------------------------------------|

|--------------------------------------------------------------------|

|--------------------------------------------------------------------|

|--------------------------------------------------------------------|

|--------------------------------------------------------------------|

|2h3-2h3-2h3-2h3-2h3-2h3-2h3-2h3-2h3-2h3-2h3-2h3-2h3-2h3-2h3-2h3-2h3-|

(for as many times until it changes, I cant be bothered to count)

|---------------------------------------------------------------------|

|---------------------------------------------------------------------|

|---------------------------------------------------------------------|

|---------------------------------------------------------------------|

|-0-0-0-0----0-0-0-0----0-0-0-0----0-0-0-0---0-0-0-0----0-0-0-0-------|

|---------------------------------------------------------------------|

|---------------------------------------------------------------------|

|---------------------------------------------------------------------|

|---------------------------------------------------------------------|

|-0-0-0-0----0-0-0-0----0-0----0-0----0-0----0-0-0-0------------------|

|---------------------------------------------------------------------|

|---------------------------------------------------------------------|

|---------------------------------------------------------------------|

|---------------------------------------------------------------------|

|--0/15--0/15--0/15--0/15--0/15--0/15--0/15--0/15-------------|

Chorus: x3

Thank you, please rate

Taken from The BassMasta -- http://www.tabs-database.com

Get this song at:  amazon.com sheetmusicplus.com

Share your thoughts

0 Comments found