Machine Head

Machine Head - Days Turn Blue To Grey guitar tab

intro

------------------

------------------

------------------ x3 then

---------------5^-

-5-7-5-7-5-8-5----

------------------

--------------------

--------------------

--------------------

------------888-777-

-5-7-5-7-55---------

--------------------

chorus

--------------------

--------------------

--------------------

-5-7-5-7-5-8-5------ x3 then

-5-7-5-7-5-8-5-10^--

-5-7-5-7-5-8-5-10^--

-------------------------

-------------------------

-------------------------

-5-7-5-7-55-10-10-10-999-

-5-7-5-7-55-8--8--8--777-

-5-7-5-7-55--------------

verse

-----------------------------------------

-----------------------------------------

-----------------------------------------

-4-4--6-6------------4-4--6-6------------ x4

-2-2--4-4--5-5--7-7--2-2--4-4--5-5--7-7--

-----------5-5--7-7------------5-5--7-7--

pre chorus

-------------------

-------------------

-------------------

------------------- x2

-------------------

-55555555-66666666-

interlude

-7-5-7-5-8-7-5-

---------------

--------------- then after a while

---------------

---------------

---------------

-7-5-7-5-8-7-5-

-7-5-7-5-8-7-5-

---------------

--------------- then with the double bass

---------------

---------------

---------------

---------------

---------------

-7-5-7-5-8-7-5-

-7-5-7-5-8-7-5-

-7-5-7-5-8-7-5-

Get this song at:  amazon.com sheetmusicplus.com

Share your thoughts

0 Comments found