Machine Head

Machine Head - Days Turn Blue To Gray Intro guitar tab

Tabbed by: KarmicApexIntel

Email: mantia1126@msn.com

| ﺭ = bend up (in this intro, note that all bends up are ¼ bends)

Tuning: B Gb B E Ab Db

[NOTE: can also be written (depending on your particular preference) as: B F# B E G# C#]

(clean guitar):

Db |-----------------------------------------------------------------------|

Ab |-----------------------------------------------------------------------|

E |-----------------------------------------------------------------------|

B |---0-2--0-2---2-3-0-5ﺭ---0-2--0-2---2-3-0-5ﺭ---0-2--0-2---2-3-0-5ﺭ-----|

Gb |-----------------------------------------------------------------------|

B |-----------------------------------------------------------------------|

*(then repeat clean part 3 more times)

Db |-----------------------------------------------------------------------|

Ab |-----------------------------------------------------------------------|

E |----------------3-3-2-2-0----------------------------------------------|

B |---0-2--0-2-0-0--------------------------------------------------------|

Gb |-----------------------------------------------------------------------|

B |-----------------------------------------------------------------------|

(DISTORTION KICKS IN):

Db |-----------------------------------------------------------------------|

Ab |-----------------------------------------------------------------------|

E |-----------------------------------------------------------------------|

B |------------0-3-0-5ﺭ----------0-3-0-5ﺭ-----------0-3-0-5ﺭ--------------|

Gb |-----------------------------------------------------------------------|

B |---0-2-0-2------------0-2-0-2-----------0-2-0-2-----------0-2-0-2-0-0--|

Db |-----------------------------------------------------------------------|

Ab |-----------------------------------------------------------------------|

E |-3-3--2-2--------------------------------------------------------------|

B |-3-3--2-2----------------0-3-0-5ﺭ----------0-3-0-5ﺭ-----------0-3-0-5ﺭ-|

Gb |-1-1--0-0--5-----------------------------------------------------------|

B |-----------5----0-2-0-2------------0-2-0-2-----------0-2-0-2-----------|

*(then repeat heavy part one more time)

Db |-----------------------------------------------------------------------|

Ab |-----------------------------------------------------------------------|

E |-------------3-3--2-2--------------------------------------------------|

B |-------------3-3--2-2--------------------------------------------------|

Gb |-------------1-1--0-0--5-----------------------------------------------|

B |-0-2-0-2-0-0-----------5-----------------------------------------------|

(end of intro)

Get this song at:  amazon.com sheetmusicplus.com

Share your thoughts

0 Comments found