Machine Head

Machine Head - Davidian (solo) guitar tab

Song: Davidian

Band: Machine Head

Tuning: C, G, C, F, A, D

Tabbed by: Conor Shanley

/=Slide up

\=Slide down

^=Bend up

|-----------------------|-----------------------------|

|-----------------------|-----------------------------|

|-----------------------|-----------------------------|PLAY 4 TIMES BEFORE SOLO

|-----------------------|-----------------------------|

|--0--------1--------0--|--(0)--0--0--0--6-----3--4---|

|--0----0---1--0--0--0--|--(0)--0--0--0--6--0--3--4---|

|--------------------------|-----------------------------|--7-(7)-8--7----------| |--------------------------|-----------------------------|-----------------6^---|

|--------------------------|-----------------------------|----------------------|

|--------------------------|-----------------------------|----------------------|

|--------------------------|-----------------------------|----------------------|

|--------------------------|-----------------------------|----------------------|

|--------------------------------------|-------------------------------------------|

|--------------------------------------|----------10--10-11-11-13--13---13^----11--|

|--7-(7)--8~---8/11--12--11------11-11-|--11--12-----------------------------------|

|--------------------------------------|-------------------------------------------|

|--------------------------------------|-------------------------------------------|

|--------------------------------------|-------------------------------------------|

|--------------------------------------|---------------------|--------------------------|

|--10~---------------------------------|---------------------|---------------------7----|

|---------12^-12-12--(12)-10-----------|--5~~----------------|-------5--7----7/8--------|

|---------------------------12--(12)\--|---------6-----------|--(6)---------------------|

|--------------------------------------|---------------------|--------------------------|

|--------------------------------------|---------------------|--------------------------|

|-----------------------------|-------------8--8/10--11--10------|---------10----10------|

|--7-8-7---7---8/10--7/8--10--|--11--8--10-------------------13--|--13-----13--------13--|

|--------8--------------------|----------------------------------|-----------------------|

|-----------------------------|----------------------------------|-----------------------|

|-----------------------------|----------------------------------|-----------------------|

|-----------------------------|----------------------------------|-----------------------|

|---------10----10-10--10--|--10--10---------10------10--|-10---10--10--10----10------|

|--13-----13-----------13--|--13--13--13---------13------|-13---13--13--13----13--13--|

|--------------------------|-----------------------------|----------------------------|

|--------------------------|-----------------------------|----------------------------|

|--------------------------|-----------------------------|----------------------------|

|--------------------------|-----------------------------|----------------------------|

|--10------10------10------10--|--13--13--13--13--13-|---16---16----16----16---16-----|

|--13--13--13--13--13--13--13--|--16--16--16--16--19-|---19---19----19----19---19-----|

|------------------------------|---------------------|--------------------------------|

|------------------------------|---------------------|--------------------------------|

|------------------------------|---------------------|--------------------------------|

|------------------------------|---------------------|--------------------------------|

This is the best Machine Head song ever and this solo fupin rocks, this tab sounds pretty spot on but if you see anything wrong leave a correction or e-mail me at shanmankesh@yahoo.com. LET FREEDOM RING!!!!!!!

Get this song at:  amazon.com sheetmusicplus.com

Share your thoughts

0 Comments found