Machine Head

Machine Head - Davidian 2 guitar tab

Machine Head - Davidian

Transcribed by:

n07h1ng (n07h1ng@yahoo.com)

Tuning:

This song is a bit different from other's because it isn't exactly tuned right.

I only figured this out after reading an article where Rob Flynn explained this.

The tuning is lower than a "dropped C" but higher than a "dropped B"

tuning.

I find the best way to get the correct tuning is use the first note of the song

to tune the low E string. Then using the low E string tune the other strings.

Notation:

* = harmonics

p.m. = palm mute

*This tab is not complete, but it should be more than enough to get you started.

And, for the song pattern, just use the riffs and listen to the song to figure it out.

Riff A

-|----------------------|----------------------|

-|----------------------|----------------------|

-|---------*------------|-------*--------------|

-|--0------5-*---1------|--0-0--5-*--1----4-3--|

-|--0--------5---1------|--0-0----5--1----4-3--|

-|--0------------1------|--0-0-------1----4-3--|

|p.m.| p.m.|---|

-|----------------------|----------------------|

-|----------------------|----------------------|

-|----------------------|----------------------|

-|--0--------------(0)--|--1519----------(19)-|

-|--0--------------(0)--|--1317----------(17)-|

-|--0--------------(0)--|----------------------|

Riff B

-|---------------------------------------------|

-|---------------------------------------------|

-|---------------------------------------------|

-|--0----0----1-0----0----0--------6--0--3--4--|

-|--0----0----1-0----0----0--------6--0--3--4--|

-|--0----0----1-0----0----0--0-0-0-6--0--3--4--|

p.m.|-| |p.m.-|

Riff B2

-|---------------------------------------------|

-|---------------------------------------------|

-|---------------------------------------------|

-|--0----0----1-0----0----0--------6-----------|

-|--0----0----1-0----0----0--------6-----------|

-|--0----0----1-0----0----0--0-0-0-6-----------|

p.m.|-| |p.m.-|

Riff B3

-|----------------------------------------------|

-|----------------------------------------------|

-|----------------------------------------------|

-|--0----0----1-0----0----0--------6--0--3--4-6-|

-|--0----0----1-0----0----0--------6--0--3--4-6-|

-|--0----0----1-0----0----0--0-0-0-6--0--3--4-6-|

p.m.|-| |p.m.-|

Riff C

-|---------------------------------------------|

-|----------------------------0-0-0------------|

-|---------------------------------------------|

-|--0---3--0--6--5--0--3---4---------0--1------|

-|--0---3--0--6--5--0--3---4---------0--1------|

-|--0---3--0--6--5--0--3---4---------0--1------|

Riff C2

-|---------------------------------------------|

-|---------------------------------------------|

-|---------------------------------------------|

-|--0---3--0--6--5--0--3---4-------------------|

-|--0---3--0--6--5--0--3---4-------------------|

-|--0---3--0--6--5--0--3---4-1-1-1-4-4-4-3-3-3-|

|-------p.m.------|

Riff C3

-|---------------------------------------------|

-|---------------------------------------------|

-|---------------------------------------------|

-|--0---3--0--6--5--0--3---4--x-x-x--0--1------|

-|--0---3--0--6--5--0--3---4--x-x-x--0--1------|

-|--0---3--0--6--5--0--3---4--x-x-x--0--1------|

|-----p.m.-----|

Riff C4

-|---------------------------------------------|

-|---------------------------------------------|

-|---------------------------------------------|

-|--0---3--0--6--5--0--3-----------------------|

-|--0---3--0--6--5--0--3-----------------------|

-|--0---3--0--6--5--0--3-----------------------|

Riff D

-|------------------------------|

-|------------------------------|

-|------------------------------|

-|------------------------------|

-|------------------------------|

-|--0-0-0---0-0---0-0-0---0-0---|

p.m.-------------------------|

Riff D2

-|------------------------------|

-|------------------------------|

-|------------------------------|

-|------------------------------|

-|------------------------------|

-|--3-3-3--4-4-4--1-1-1--3-3-3--|

p.m.-------------------------|

Riff D3

-|-------------------------------------|

-|-------------------------------------|

-|-------------------------------------|

-|-------------------------------------|

-|-------------------------------------|

-|--3-3-3--4-4-4--1-1-1--3-3-3--1-1-1--|

p.m.--------------------------------|

Get this song at:  amazon.com sheetmusicplus.com

Share your thoughts

0 Comments found