Machine Head

Machine Head - Crashing Around You bass tab

Artist :machine head

Song :crashing around you

Album :supercharger

Tabbed by ashley shannon - sic@antichrist.co.uk

This is a correction of my last tab ,last time i couldnt really hear

the bass over the guitars in the chorus(bloody ahrue luster)im sure

youll find this tab much more accurate.

verse riff start:

|------------------------------------------

|------------------------------------------ x1

|------------------------------------------

|---00-00-00-00-0011-00-00-00-00-----------

chorus:

|----------------------------------------------------------------

|---------------------------------------------------------------- x 1

|----------------------------------------------------------------

|---0-7-0-8-8888888-0-7-0-8-8888888-0-7-0-8~-8888888887777555--

verse riff main:

|-------------------

|------------------- x4

|-------------------

|---00-00-00-00-001-

chorus x1

verse riff main x4

chorus x1

bridge:

|-------------------

|------------------- x7

|-------------------

|---8-8-8-8-8-8-8/4-

verse riff main x4

alternate chorus:

|----------------------------------------------------

|---------------------------------------------------- x 1

|----------------------------------------------------

|---8~--1-0-7-0-8-8888888--0-7-0-8~-888888887777555-

chorus x1

verse riff end:

|------------

|------------ x1

|------------

|---00-00-00-

Thats it, some peaple might find the chorus a bit tricky but listen to

the song and youll get it ,good luck.

Get this song at:  amazon.com sheetmusicplus.com

Share your thoughts

0 Comments found