Machine Head

Machine Head - Clenching The Fists Of Dissent Intro guitar tab

This is the intro for the almighty "Clenching The Fists Of Dissent" from "The

Try and work out the timing. Try and sustain the notes for as long as possible. The

marked

are just the ones that must be held.

And someone asked me to put this so here. The tuning is

Guitar 1 (Robb Flynn)[Acoustic]

|--------------------------|

|6~-665---665-6~-665---665-|

|------7~-----------7~-----|

|--7---8~5------7---8~-----|

|5~-----------5~------6----|

|--------------------------| Play this 6 times.

Guitar 2 (Phil Demmel)[Acoustic]

This guitar enters during the final "665" of the first time playing Robb Flynn's riff.

are 10s by the way, not 1-0s)

|-----

|10108

|-----

|-----

|-----

|-----

Phil then plays:

|--------------------------------------|

|10~--101086~-10108-10~--101086~-10108-|

|--------------------------------------|

|----7-----8~5----------7-----8~-------|

|5~~----------------5~~---------6------|

|--------------------------------------| He plays this 5 times.

Guitar 3 (Robb Flynn) [Distortion Electric]

Robb basically plays the same as his acoustic part but without the bass notes. I'll tab

just so you understand. He comes in on the 3rd time of Robb's acoustic part (or the 2nd

Phil's. It's your choice who's riff you measure it by).

|--------------------------|

|6~-665---665-6~-665---665-|

|------7~-----------7~-----|

|------8~-----------8~-----|

|5~-----------5~-----------|

|--------------------------| He plays this 3 times.

Then Guitars 1 and 3 (both Robb Flynn) change to:

|------------

|5~~~665-5~~~

|-------------|

|7~~~----7~~~-|

|-------------|

|-------------|

Guitar 2 (Phil Demmel) comes in along with guitars 1 and 3 with this (again, 10s not 1-0s):

|----------------

|10~~~10108-10~~~

|-----------------|

|7~~~~------7~~~~-|

|-----------------|

|-----------------|

Now guitars 3 (Robb Flynn) and 4 (Phil Demmel) [Distortion Electric] fades in and then

with:

|-

|-

|-

|0

|0

|0

The next guitar part is (and thanks to Metal_Rich for this! I don't know which guitar is which though.):

|--------------------|

|--------------------|

|--------------------|

|--------------------|

|3h5--------3h6--3h6-|

|---00000000---00----|

PM ........ ..

|------------------------|

|------------------------|

|-----------1h0---1h0----|

|--------------1h0---1h0-|

|3h5---------------------|

|---00000000-------------|

........

|--------------------|

|--------------------|

|--------------------|

|--------------------|

|3h5--------3h6--3h6-|

|---00000000---00----|

PM ........ ..

|------------------|

|-------------643--|

|----------------5-|

|---003333653------|

|3h5---------6-----|

|------------------|

.........

And thats it! I may try and do a full one someday...anyway thanks! PM me for corrections.

Get this song at:  amazon.com sheetmusicplus.com

Share your thoughts

0 Comments found