Machine Head

Machine Head - Burning Redband: Machine Head guitar tab

Band: Machine Head

Song: Burning Red

Album: The Burning Red

Tuning: E,A,D,G,B,E.

E|-----------------------------------------------------------------------------|

B|-------------------------------8--------------------------------8------------|

G|-----------------------------------------------------------------------------|

D|----------------------9-------------------------------7----------------------|

A|-----------7-------------------------------5---------------------------------|

E|-----------------------------------------------------------------------------|

E|------------------------------------------------------------------------------|

B|----------------------------------5--------------------------5----------------|

G|------------------------------------------------------------------------------|

D|------------------------5--------------------------4--------------------------|

A|-----------3-------------------------------2----------------------------------|

E|------------------------------------------------------------------------------|

Play that as your intro and verse.

Chorus:

C#m B A G#

E|------4------2-----5----4--------------------------------------------------|

B|------5------4-----5----4--------------------------------------------------|

G|-----6-------4-----6----5--------------------------------------------------|

D|-----6-------4-----7----6--------------------------------------------------|

A|-----4-------2-----7----6--------------------------------------------------|

E|--------------------5----4-------------------------------------------------|

Strum The Chords More Than Once.

Once The Chorus Has Been Played the 2nd Time

You Need To Play the Part Blow:

F# G# A B

E|----2--------4-----5------7--------------------------------------------|

B|----2--------4-----5------7--------------------------------------------|

G|----3--------5-----6------8--------------------------------------------|

D|----4--------6-----7------9--------------------------------------------|

A|----4--------6-----7------9--------------------------------------------|

E|-----2-------4-----5------7--------------------------------------------|

There You Go. That Is All You Really Need.

ENJOY!!

Get this song at:  amazon.com sheetmusicplus.com

Share your thoughts

0 Comments found