Machine Head

Machine Head - Burning Red guitar tab

this is a very simple song, this was the first song i learned

E|---------|---------|---------|---------|

B|------8--|------8--|------5--|------5--|

G|---------|---------|---------|---------|

D|----9----|----7----|----5----|----4----|

A|--7------|--5------|--3------|--2------|

E|---------|---------|---------|---------|

and if u can't play it that way u can play it this way

E|------3---|------3---|------0---|------0---|

B|----------|----------|----------|----------|

G|----4-----|----2-----|----0-----|----------|

D|--2-------|--0-------|----------|----4-----|

A|----------|----------|--3-------|--2-------|

E|----------|----------|----------|----------|

Get this song at:  amazon.com sheetmusicplus.com

Share your thoughts

0 Comments found