Machine Head

Machine Head - Blood Of The Zodiac guitar tab

Artist: Machine Head

Song: Blood of the Zodiac

Album: The more things change

Tuning: D,G,C,F,A,D

Riff A:

|---------------------|

|---------------------|

|---------------------|

|-------1-------------|

|---0-------2--1--3---|

|---------------------|

Riff B: Riff C:

|----------------||-------------------------------------|

|------\---------||-------------------------------------|

|--------\-------||-------------------------------------|

|----------\-----||---7-7-7-7-7-7-7-7-9-9-8-8-8-8-8-8---|

|--7---------\---||-------------------------------------|

|--5-------------||-------------------------------------|

Riff D:

|----------------------------------------------|

|----------------------------------------------|

|----------------------------------------------|

|--------------7/10-10--9-------------7/10-10--|

|---2----------5/8--8---7--2----------5/8--8---|

|---0--0-0-0-0-------------0--0-0-0-0----------|

|--------------------------------------|

|--------------------------------------|

|--------------------------------------|

|---------------7/10-10----------------|

|---2-----------5/8--8---2-7-8-5-6-3---|

|---0---0-0-0-0----------0-5-6-3-4-1---|

Riff E:

|------------------------------------------------|

|------------------------------------------------|

|------------------------------------------(5)---|

|------------------------------------------------|

|------2-2-2-2-2-2-2-2-2-2-2-2-2-2-2-2-2-2-------|

|---\--0-0-0-0-0-0-0-0-0-0-0-0-0-0-0-0-0-0-------|

Riff F: (1/4)

|----------------/------|

|----------5----5-------|

|-----------------------|

|-----------------------|

|-----------------------|

|-----------------------|

1,2,3 4

Riff G: ----- ----------

|--------|-------|------------|

|--------|-------|------------|

|--------|-------|------------|

|--------|-------|------------|

|---5_7--|--5_8--|--8--7--5---|

|--------|-------|--6--5--3---|

1,2,3 4

Riff H: -------- -----------

|---------|----------|-------------|

|---------|----------|-------------|

|---------|----------|-------------|

|---------|----------|-------------|

|-----2-2-|-----3-3--|---8--7--5---|

|--x--0-0-|--x--1-1--|---6--5--3---|

Riff I:

|--------------------------|

|--------------------------|

|--------------------------|

|-----------8--8-8-8-8-8---|

|-7--7-7-7-----------------|

|-5--5-5-5-----------------|

1,2,3 4

Riff J: ---------- ----------

|--------------------------------------|------------|------------|

|--------------------------------------|------------|------------|

|--------------------------------------|------------|------------|

|--------------------------------------|------------|--8--8--8---|

|---7-7--7--7--8--8--8--10-10--10--10--|--8--8--8---|--6--6--6---|

|---5-5--5--5--6--6--6---8--8---8---8--|--6--6--6---|------------|

1,2,3 4

Riff K: ---------- ----------

|--------------------------------------|------------|------------|

|--------------------------------------|------------|------------|

|--------------------------------------|------------|--8--8--8---|

|---7-7--7--7--8--8--8--10-10--10--10--|--8--8--8---|--6--6--6---|

|---5-5--5--5--6--6--6---8--8---8---8--|--6--6--6---|------------|

|--------------------------------------|------------|------------|

Riff L:

|----------------------------------------|

|----------------------------------------|

|------2--------2--------2-----------3---|

|---------------------------------3------|

|---0-----0--1-----1--3-----3--1---------|

|----------------------------------------|

Riff M:

|-----------------------------------|

|-----------------------------------|

|---2_3_2---2_3_2---2_3_2---2_3_2---|

|-----------------------------------|

|-----------------------------------|

|-----------------------------------|

Song Order:

Intro: -Riff A x8 Alone

-Riff A x8 (1st Guitar) -Riff B x8 (2nd Guitar)

-Riff A x4 (1st Guitar) -Riff C x4 (2nd Guitar)

-Riff D x2 Both Guitars

-Riff E x1

First Verse: -Riff F x8 (1st Guitar) -Riff G x2 (2nd Guitar)

-Riff H x2 Both Guitars

Pre-Chorus: -Riff I x4 Both Guitars

Chorus: -Riff D x2 Both Guitars

-Riff E x1

Second Verse: -Riff F x8 (1st Guitar) -Riff G x2 (2nd Guitar)

-Riff H x2 Both Guitars

Pre-Chorus: -Riff I x4 Both Guitars

Chorus: -Riff D x2 Both Guitars

-Riff E x1

Lead (Logan): -Riff J x1

Lead (Robb): -Riff K x1

-Riff L x4

Interlude: -Riff L x4 Robb mumbling

-Riff L x4 (1st Guitar) -Riff M: x4 (2nd Guitar)

Outro: -Riff D x4

Get this song at:  amazon.com sheetmusicplus.com

Share your thoughts

0 Comments found