Machine Head

Machine Head - Block guitar tab

Author/Artist: Machine Head

Title: Block

Album: Burn My Eyes

Transcribed by: Alex

Email: ddwashburn@aol.com

Dropped D tuning

These are all the riffs except any small fills and I don't have the rhythm written out perfect for most of it

------------------------------------------------------------------------------

------------------------------------------------------------------------------

------------------------------------------------------------------------------

-x-x------------xx------------------------------------------------------------

-x-x------------xx---------------------------------------------------2-3-2----

-x-x---33-------xx---0-1p0-1h2-1p0-1p0-1p0-1h2-----------------------0-1p0----

Harmonics pm----------------------- a few times then do:

---------------------|--------------------------------------------------------

---------------------|--------------------------------------------------------

---------------------|-99999999999999--------99999999-10b---------------------

---------------------|--------------------------------------------------------

-3-4-3-2-3-2-3-2-3-4-|--------------------------------------------------------

-1/2-1p0-1p0-1p0-1/2-|--------------------------------------------------------

Verse unsure 2nd time 3rd time

------------------------------------------------------------------------------

------------------------------------------------------------------------------

-99999999999-888888888-7777777-----------------------------------7------------

-----------------------------------------------------------------7------------

------------------------------------4----5---99------4----5-------------------

-------------------------------0000-20-0-30-077-0000-20-0-30-000--------------

Chorus:pm-- p m - - pm-- - - - --- Harm After

------------------------------------------------------------------------------

------------------------------------------------------------------------------

------------------------------------------------------------------------------

---------------------------7--------------------------------------------------

------------------------------------------------------------------------------

------------------------------------------------------------------------------

second chorus hold out on Harmonic then bass and drums start then do:

------------------------------------------------------------------------------

------------------------------------------------------------------------------

------------------------------------------------------------------------------

-------23---------------------------------------7-----------------------------

-------01---32-------------------------------------------222222222222---------

--0000----0-10-0-0-0-0--777777777777666333-0000----------000000000000---------

pm-- p m------ Fast heavy part pm-- Ar. Harm Every 3 switches

------------------------------------------------------------------------------

------------------------------------------------------------------------------

------------------------------------------------------------------------------

----------------------------------------7h8p7---------------------------------

------------------------------------------------------------------------------

------------------------------------------------------------------------------

guitar mute all those 0's last time: The more the sense of

------------------------------------------------------------------------------

------------------------------------------------------------------------------

------------------------------------------------------------------------------

------------------------------------------------------------------------------

------------------------42---52---42--99--------------------------------------

-------------------0000-20-0-30-0-20-077--------------------------------------

ignorance...part pm-- - -

Get this song at:  amazon.com sheetmusicplus.com

Share your thoughts

0 Comments found