Machine Head

Machine Head - Beautiful Mourning guitar tab

Guitar 1

|-----------|

|-----------|

|-----------|

|--5///\\\\\\--|

|--5///\\\\\\--|

|--5///\\\\\\--|

Guitar 1

|-----------------------------------------------|

|-----------------------------------------------|

|-----------------------------------------------|

|--0000200300002003002003-1---00002003000020030-|

|-----------------------------------------------|

|-----------------------------------------------|

Guitar 2

|----------------------|

|----------------------|

|----------------------|

|--Slow Pickscrape-----|

|----------------------|

|----------------------|

Both Guitars

|--------------------------------------------------------------|

|--------------------------------------------------------------|

|--------------------------------------------------------------|

|-0h5h6-0h5h6--0000200300002003002003-1---000020030000200300---|

|--------------------------------------------------------------|

|--------------------------------------------------------------|

Guitar 1 Plays This While Rob Screams "FUCK YOU ALL!"

|-------------|

|-------------|

|-5h7h8-5h7h8-|

|-------------|

|-------------|

|-------------|

Both Guitars

|-------------------------------------|

|-------------------------------------|

|-------------------------------------|

|------2----3-----2----3----2----3-1--|

|------2----3-----2----3----2----3-1--|

|--000-2-00-3-000-2-00-3-00-2-00-3-1--|

|----------------------------------------|

|----------------------------------------|

|----------------------------------------|

|------2----3-----2----3-----------------|

|------2----3-----2----3-----------------|

|--000-2-00-3-000-2-00-3-00-0h3h4-0h3h4--|

|-------------------------------------|

|-------------------------------------|

|-------------------------------------|

|------2----3-----2----3----2----3-1--|

|------2----3-----2----3----2----3-1--|

|--000-2-00-3-000-2-00-3-00-2-00-3-1--|

|--------------------------------------|

|--------------------------------------|

|-----------------------2-----2--------|

|------2----3-----2-----2-----2-----0--|

|------2----3-----2-----0-----0-----0--|

|--000-2-00-3-000-2-000---0-0---0-0-0--|

Well That’s What I Came Up With So Far And Hopefully I Will Have The Rest Of The Song

Out In The Future.

Also Please Rate This Tab And Leave A Comment If You Wish To Make A Correction, Thank You.Added by tabs-database.com and our distinguished partners

Get this song at:  amazon.com sheetmusicplus.com

Share your thoughts

0 Comments found