Machine Head

Machine Head - American High bass tab

Artist : Machine Head

Song : American High

Album : Supercharger

Tabbed by Ashley shannon(sic@antichrist.co.uk)

Some peaple have criticised this song but i believe it is a

very good song as is the rest of supercharger.Tune down top

string one step.

Tarzan yell

Main riff:

|--------------------------------

|-------------------------------- x 8

|--------------------------------

|---0-1h0-1h0-1h0-1-0-1h0--------

no bass in verse.

main riff x 4

chorus:

|--------------------

|-------------------- x 2

|-------3------------

|---0-0-4----4-2-6---

chorus end:

|--------------------------------------

|-------------------------------------- x 2

|---3-3-3-3---------2-2-2-2------------

|------------4-4-4-4---------3-3-3-3---

main riff x 3

chorus x 2

chorus end x 2

bridge:(not sure about this)

|-----------------

|----------------- x 8

|------------3----

|---0-0-0-0--4----

chorus end x 6

main riff x 4

Thats it good luck.

Get this song at:  amazon.com sheetmusicplus.com

Share your thoughts

0 Comments found