Machine Head

Machine Head - All In Your Head bass tab

Machine Head

All in your Head

Supercharger

Tabbed By: Adam Williams, Machinevayne11

Tuning: B, E, A, D, G

If question marks appear, its not cos the notes are dodgy, its a problem with mxtabs,

dunno y its happenin cos i didnt put them in, but they might not occur, soz if they do

I was shocked to see that a song of this much class had not already been tabbed! Enjoy!

Intro/main riff x8

G----------------------------

D----------------------------

A----------------------------

E----10-----8----8-8--8-8-8-8

B---0----0-------------------

Verse x2

G--------------

D--------------

A--------------

E--------------

B---6p0--0-0-0- play repeatedly until it changes

Into the verse ending

Verse ending

G-----------------------

D-----------------------

A-----------------------

E-----------------------

B---6p3-3-3--10-10-10-10

Pre-Chorus x1

G----------------------------

D----------------------------

A----------------------------

E--7---9-10--12---15-14-15?-6

B----------------------------

Chorus x2

G------------------------------------------

D------------------------------------------

A------------------------------------------

E------------------------------------------

B?-0-0?-0-0-0?-0-0---10-10?-10-10-10?-10-10

G-----------------------------------

D-----------------------------------

A-----------------------------------

E-----------------------------------

B-?5-5?-5-5-5?-5-5---8-8?-8-8-8?-8-8

Verse x2

Pre-chorus x1

Chorus x2

Main riff x8

Pre-chorus x2

Chorus x3

Main riff x4

Tankyou

Taken from The BassMasta -- http://www.tabs-database.com

Get this song at:  amazon.com sheetmusicplus.com

Share your thoughts

0 Comments found