Machine Head

Machine Head - All Falls Down guitar tab

MACHINE HEAD bullet_trip@yahoo.com

ALL FALLS DOWN

Tuning: Drop B (B F# B E G# C#)

VERSE

|-------------8-----------------------8--7--5--7--|

|-7--5--7--5-----5--7--5--7--5--------------------|

|-------------------------------------------------|

|-------------------------------------------------|

|-------------------------------------------------|

|-------------------------------------------------|

| . . . . . . . . . . . .

|

|

|Gtr 2 (Scrap pick down the strings, near pickups)

|-x-----------------------------------------------|

|-----x-------------------------------------------|

|---------x---------------------------------------|

|-------------x-----------------------------------|

|-----------------x-------------------------------|

|-------------------------------------------------|

|-------------8-----------------------------------|

|-7--5--7--5-----5--7--5--8--8--8--8--8--8--8--8--|

|-------------------------------------------------|

|-------------------------------------------------|

|-------------------------------------------------|

|-------------------------------------------------|

. . . . . . . . (. . . . . . . .)

(0:52)

|-------------8-----------------------------------|

|-7--5--7--5-----5--7--5--8--7--------------------|

|-------------------------------------------------|

|-------------------------------------------------|

|-------------------------------------------------|

|-------------------------------------------------|

. . . . . . . .

POWER RIFF

|-------------------------------------------------|

|-------------------------------------------------|

|-4--2--4--2--3--2--4--2--4--2--4--2--3--2--0--2--|

|-4--2--4--2-----2--4--2--4--2--4--2--------------|

|--------------------------------------------|

|-----------------------------------------------|

|-4--2--4--2--3--2--4--2--4------------------------------|

|-4--2--4--2-----2--4--2--4------------------------------|

(1:41 - I am a monster...)

|----------------------------3---------------------------|

|----------------------------6Fb-------------------------|

|--------------------------------------------------------|

|--------------------------------------------------------|

|-4--2--4--2--3--2--4--2--4------------------------------|

|-4--2--4--2-----2--4--2--4------------------------------|

CHORUS

|-----------------------------------------------------|

|-----------------------------------------------------|

|-2--4-----4----4-----4--4--2--4-----4----4-----4--4--|

|-2--4-----4----4-----4--4--2--4-----4----4-----4--4--|

|-2--4-----4----4-----4--4--2--4-----4----4-----4--4--|

|------------------------------------------------------|

|-4--4---------------2--2------------------4--4--4--4--|

|-4--4--------0------2--2--------2---------4--4--4--4--|

|-2--2--------0------0--0--------2---------2--2--2--2--|

|----------0--0---------------0--2------0--------------|

. . .

(Down Fall, It All Falls...)

|----------------------------------------------------------------------------------|

|-7---7---7---/9---9----9---/11---11---/14----14----14---13---13----13---9---9---|

|----------------------------------------------------------------------------------|

|-5---5---5---/7---7----7---/9-----9---/12----12----12---11---11----11---7---7---|

|----------------------------------------------------------------------------------|

|

|

|----------------------------------------------------------------------------------|

|-7------------------------------------------------------------6----------4--------|

|----------------------------------------------------------------------------------|

|-5------------------------------------------------------------4----------2--------|

|----------------------------------------------------------------------------------|

(1:57 - Down...)

|--------------------------------------------|

|--------------------------------------------------|

|-4--2--4--2--3--2--4--2--4--2--4--2------------------|

|-4--2--4--2-----2--4--2--4--2--4--2------------------|

BREAKDOWN

(2:54) (2:59)

|-------------------------------------------------------------------------------|

|-10----------------------------------------------------------------------------|

|----------------------------------------11---------14----------16-----9--------|

|-------------------------------------------------------------------------------|

|-----------------------------------------9---------12----------14-----7--------|

|-------------------------------------------------------------------------------|

|

|

|-------------------------------------------------------------------------------|

|-11-------------------------------------11---------14----------16-----12-------|

|-------------------------------------------------------------------------------|

|-9---------------------------------------9---------12----------14-----10-------|

|-------------------------------------------------------------------------------|

(3:04 - With faith I crawl...)

|-------------14------------12---------------------------|

|-------------------------------------------14-----------|

|-11-----------------------------------------------------|

|--------------------------------------------------------|

|--------------------------------------------------------|

|--------------------------------------------------------|

|--------------------------------------------------------|

|-15----------12------------14---------------------------|

|-------------------------------------------14-----------|

|--------------------------------------------------------|

|--------------------------------------------------------|

|--------------------------------------------------------|

(3:23 - Before the fall...)

|-------------14------------16---h17p16------------------|

|-------------------------------------------17-----------|

|-11-----------------------------------------------------|

|--------------------------------------------------------|

|--------------------------------------------------------|

|--------------------------------------------------------|

|-------------------------14----16-------17-------19-----|

|-15----------17-----------------------------------------|

|--------------------------------------------------------|

|--------------------------------------------------------|

|--------------------------------------------------------|

|--------------------------------------------------------|

(3:33 - Hold On...)

|---------------------------------------------------------------------------------|

|-7---------------------------------------------------6-------------4-------------|

|---------------------------------------------------------------------------------|

|-5---------------------------------------------------4-------------2-------------|

|---------------------------------------------------------------------------------|

OUTRO

|-------------------------------------------------|

|-------------5-----------------------5--4--2--4--|

|-4--2--4--2--3--2--4--2--4--2--4--2--3--2--0--2--|

|-4--2--4--2-----2--4--2--4--2--4--2--------------|

. . . . . . . . . . . . . . .

(4:24)

|-------------------------------------------------|

|-------------5-----------------------------------|

|-4--2--4--2--3--2--4--2--4----------------------|

|-4--2--4--2-----2--4--2--4----------------------|

. . . . . . . .

Get this song at:  amazon.com sheetmusicplus.com

Share your thoughts

0 Comments found