Machine Head

Machine Head - A Thousand Lies guitar tab

from:pinga

this is my third cut from the album BURN MY EYES-MACHINE HEAD. I hope you enjoy my tabs and stuff.I like the idea of FTP Arizona. It rules!!!!!!!

A THOUSAND LIES

BY:MACHINE HEAD

TUNING

6-C 3-F

5-G 2-A

4-C 1-D

|--------------------------|-------------------------|--------------------------|-------------------------------|

|--------------------------|-------------------------|--------------------------|-------------------------------|

|--------------8----------|--------------8----------|--------------8----------|--------------8---------------|

|----------0--6----6-----|----------0--6----------|----------0--6----6-----|----------0--6---------------|

|------0---------------8--|------0-----------------|------0---------------8--|------0--------------3---1--|

|--0-----------------------|--0---------------------|--0-----------------------|--0------------------3---1--|

|--------------------------|-------------------------|--------------------------|-------------------------------|

|--------------------------|-------------------------|--------------------------|-------------------------------|

|--------------8----------|--------------8----------|--------------8----------|--------------8---------------|

|----------0--6----6-----|----------0--6----------|----------0--6----6-----|----------0--6---------------|

|------0---------------8--|------0-----------------|------0---------------8--|------0--------------3---1--|

|--0-----------------------|--0---------------------|--0-----------------------|--0------------------3---1--|

RHY FIG 1 END RHY FIG 1

|-------------------------------|---------------------|-------------------------------|------------------------------|

|-------------------------------|---------------------|-------------------------------|------------------------------|

|------------8-----------------|-------------8------|------------8-----------------|-------------8--(8)\----------|

|---------0--6---------6------|---------0--6------|---------0--6---------6------|---------0--6--(6)\----------|

|---------------------------8--|---------------------|---------------------------8--|----------------------3----1--|

|--0--7-----------------------|--0--7--------------|--0--7-----------------------|--0--7---------------3----1--|

B1 B1

W/RHY FIG 1 (2X)

|------------------------------|--------------------------------|---------------------------|---------------------------------|

|------------------------------|--------------------------------|---------------------------|---------------------------------|

|------------------------------|--(7)--------------------------|---------------------------| ---------------------------------|

|------------------------------|--------------------------------|---------------------------|---------------------------------|

|--0--------------(0)--------|--(5)-------------------3--1--|--0--0--0--6-----6--0--|--0--0--0--6-------------------|

|--0--------------(0)--------|--(0)--0--X/19-(19)\3--1--|--0--0--0--6-----6--0--|--0--0--0--6-----6--6----6--|

RHY FIG 2 (2X)

|---------------------------|-----------------------------------|----------------------------------|----------------------------------------|

|---------------------------|-----------------------------------|----------------------------------|----------------------------------------|

|---------------------------|-----------------------------------|--------------8------------------|-----------------------------------------|

|---------------------------|-----------------------------------|----------0--6---------6--------|--------0--6---6-0-6---6-0-6-------|

|--0--0--0--6-----6--0--|--0--0--0--6-----(6)--3----1--|-------------------------------8--|----------------------------------------|

|--0--0--0--6-----6--0--|--0--0--0--6-----(6)--3----1--|--0---7--------------------------|--0--7---------------------------------|

(END RHY FIG 2) RHY FIG 3

|-------------------------------|--------------------------------------|---------------------------------------|

|-------------------------------|--------------------------------------|---------------------------------------|

|--------------8---------------|--------------8-8-8-8-8\-----------|---------------------------------------|

|---------0---6--------6------|---------0---6-6-6-6-6\-----------|---------------------------------------|

|---------------------------8--|-----------------------------1-3-1--|-----------6---------------------------|

|--0--7-----------------------|--0--7----------------------1-3-1--|--0-0-0--6-0-0-0--0-0-0-0-0-0--|

(END RHY FIG 3)

|----------------------------------------|---------------------------------------|--------------------------------------------|

|----------------------------------------|---------------------------------------|--------------------------------------------|

|----------------------------------------|---------------------------------------|--------------------------------------------|

|----------------------------------------|---------------------------------------|--------------------------------------------|

|-----------6------------------6-0-6--|-----------6---------------------------|-------------6--------------------1-3-1--|

|--0-0-0--6-0-0-0--0-0-0-6-0-6--|--0-0-0--6-0-0-0--0-0-0-0-0-0--|--0-0---0--6-0-0-0--0---0-0-1-3-1--|

W/RHY FIG 3

VERSE 1,2,3

W/RHY FIG 3

|----------------------------|---------------------------------|------------------------------------|-------------------------------------|

|----------------------------|---------------------------------|------------------------------------|-------------------------------------|

|----------------------------|---------------------------------|------------------------------------|-------------------------------------|

|----------------------------|---------------------------------|------------------------------------|-------------------------------------|

|--0--0--6--0--0--6-6\--|--------------6------7--6-----6|----0--0--6--0--0--6-------6\--|--------------6------7--6---6-0-6|

|--0--0--6--0--0--6-6\--|--0--0---0--6--0--7--6-----6|----0--0--6--0--0--6-------6\--|--0--0---0--6--0--7--6----6-0-6|

|-----------------------------------------|-----------------------------------------------|-----------------------------------------|

|-----------------------------------------|-----------------------------------------------|-----------------------------------------|

|-----------------------------------------|-----------------------------------------------|-----------------------------------------|

|--8-----------------8-------------------|--8-----------------8--8-8-8/10-10-10--|--8-----------------8-------------------|

|--6---------6------6-------------------|--6-----------------6--6-6-6/--8--8--8---|--6---------6------6--------------------|

|-----0-0-0-6-0-0----0-0-0-0-0-0--|-----0-0-0-6-0-0--------------------------|-----0-0-0-6-0-0----0-0-0-0-0-0---|

|---------------------------------|

|---------------------------------|

|---------------------------------|

|--8------------------5-5-6-6--|

|--6---------6-------3-3-4-4--|

|-----0-0-0-6-0-0-------------|

CHORUS W/RHY FIG 2 (2X)

|------------------------------|--------------------------------|--------------------------------|-------------------------------|

|------------------------------|--------------------------------|--------------------------------|-------------------------------|

|------------------------------|--------------------------------|--------------------------------|-------------------------------|

|------------------------------|--------------------------------|--------------------------------|-------------------------------|

|--0-0-2-1-0-0-5-4-3-2--|--0-0-2-1-0-0-0-5-4-3-2--|--0-0-2-1-0-0-0-5-4-3-2--|-------------------------------|

|--0-0-2-1-0-0-5-4-3-2--|--0-0-2-1-0-0-0-5-4-3-2--|--0-0-2-1-0-0-0-5-4-3-2--|--0-2-1-0-0-3-5-4--3-2--|

RHY FIG 4 2X(END RHY FIG 4)

|---------------------------------|---------------------------------|----------------------------------|------------------------------|

|---------------------------------|---------------------------------|----------------------------------|------------------------------|

|---------------------------------|---------------------------------|----------------------------------|------------------------------|

|---------------------------------|---------------------------------|----------------------------------|------------------------------|

|---------------------------------|---------------------------------|----------------------------------|------------------------------|

|--0-0-2--1-0-0-3-5-4-3-2--|--0-0-2--1-0-0-3-5-4-3-2--|--0-0-2--1-0-0-3-5-4-3-2--|--0-2-1-0-0-3-5-4-3-2--|

RHY FIG 5 (PLAY W/ SOLO)

|--------------------------|----------------------------|-----------|--------------------------|--------------------------|

|--------------------------|----------------------------|-----------|--------------------------|--------------------------|

|--------------------------|----------------------------|-----------|--------------------------|--------------------------|

|--------------------------|----------------------------|-----%----|--8-8-8-8--8-8-8-8--|--8-8-8-8--8-8-8-8---|

|--0--0---0--0--0---0--|--0--0---0--3--3/6--6--|------------|--6-6-6-6--6-6-6-6--|--6-6-6-6--6-6-6-6---|

|--0--0---0--0--0---0--|--0--0---0--3--3/6--6--|------------|--------------------------|--------------------------|

END RHY FIG 5 W/RHY FIG 5

|-------------------------|-------------------------|--10-10-10---10-10-10-10-10-10---10--|

|-------------------------|-------------------------|--13-13-13---13-13-13-13-13-13---13--|

|-------------------------|-------------------------|--------------------------------------------------|

|--5-5-5-5--5-5-5-5--|-------------------------|--------------------------------------------------|

|--3-3-3-3--3-3-3-3--|--3-----1---------------|--------------------------------------------------|

|-------------------------|--3-----1---------------|--------------------------------------------------|

|--(10)-10-10-10-10----10-10-10-10-12-12-12--|--12---10-12--10/12\10-(10)/12\10--------------------------|

|--(13)-13-13-13-13----13-13-13-------------------|----------------------------------------------13-(13)-11-13\11\--|

|------------------------------------------------------------|-----------------------------------------------------------------------|

|------------------------------------------------------------|-----------------------------------------------------------------------|

|------------------------------------------------------------|-----------------------------------------------------------------------|

|------------------------------------------------------------|-----------------------------------------------------------------------|

|----------------------|----------------------------------------------------------------|-------------------------------------------------------|

|-10/11\10---------|----------------------------------------------------------------|-----------------10-10-10-13-11-13-14--------|

|-----------------12--|--10-11-10-11-10-11-10-11-10------------------------|-----10-11-13--------------------------------X-X|

|----------------------|-----------------------------------------12-12-10-12-10--|-12---------------------------------------------------|

|----------------------|----------------------------------------------------------------|-------------------------------------------------------|

|----------0--0-------|----------------------------------------------------------------|-------------------------------------------------------|

|--15-------------15---------|--15----15----|--15----13---------|--15---(15)---15---(15)---12-12-15--|

|--------------X---------------|----------------|---------------15~--|---------------------------------------------|

|-------------------------------|----------------|----------------------|---------------------------------------------|

|-------------------------------|----------------|----------------------|---------------------------------------------|

|-------------------------------|----------------|----------------------|---------------------------------------------|

|-------------------------------|----------------|----------------------|---------------------------------------------|

|--15-12-13-12----------------------------------|--------------------------------------------|

|-------------------15----13-15----11-12-10--|--12--10-10-10-13------13------13--|

|-----------------------14--------------------------|--------------------12---------------12--|

|----------------------------------------------------|--------------------------------------------|

|----------------------------------------------------|--------------------------------------------|

|----------------------------------------------------|--------------------------------------------|

W/RHY FIG 4 (2X)

W/RHY FIG 4 (2 3/4 X)

1

Get this song at:  amazon.com sheetmusicplus.com

Share your thoughts

0 Comments found