Lush

Lush - Sweetness And Light guitar tab

sweetness and light (anderson)

capo ii

intro (emma):

|----3---3---2-2-2-2-2-2-------------------1---1---0-0-0-0-0-0---------------

|--3---3---3---------------repeat--------1---1---1---------------repeat------

|----------------------------------------------------------------------------

|----------------------------------------------------------------------------

|----------------------------------------------------------------------------

|----------------------------------------------------------------------------

(miki)

|----------------------------------------------------------------------------

|----------------------------------------------------------------------------

|--7----strum as above-------------------5---strum as above------------------

|--7-------------------------------------0-----------------------------------

|--5-------------------------------------3-----------------------------------

|----------------------------------------------------------------------------

then, as vocals begin:

miki: xx0230, xx0010 (strumming as above)

emma: x577xx, x3555x (strum on chord changes)

repeat intro (bass and drums appear)

verse one:

miki: xx0230, xx0010 (as above)

emma: x577xx, x3555x (as miki)

you are the sweetness...

miki: xx0232, xx0233, 320033, 320033, 355333, xx0232

emma: pick notes occasionally

repeat intro

verse two:

miki: xx0232, xx0033

emma: pick ocasionally

chorus (as above)

breakdown:

xx023x or something like it, played loud

miki's chords during emma's solo:

D, C, G, Gm, etc

emma's solo:

--3--5-5----3--2--3--5-------3--5-5----3--2--3--5--10-----------------------

------------------------3---------------------------------------------------

----------------------------------------------------------------------------

----------------------------------------------------------------------------

----------------------------------------------------------------------------

----------------------------------------------------------------------------

--10-10-10-11-10-10-10-8-10-10----------------------------------------------

--------------------------------four times----------------------------------

----------------------------------------------------------------------------

----------------------------------------------------------------------------

----------------------------------------------------------------------------

----------------------------------------------------------------------------

--3--5-5----3--5-5----3--5-5--3-2-3-2-3-5-3-2-------------------------------

----------3---------3-------------------------------------------------------

----------------------------------------------------------------------------

----------------------------------------------------------------------------

----------------------------------------------------------------------------

----------------------------------------------------------------------------

chorus

play chorus chords to end, leaving high e string open occasionally on g/gm

end on: xx023x

--

comments/questions to:

dave parrish

dave@malvina.com

Get this song at:  amazon.com sheetmusicplus.com

Share your thoughts

0 Comments found