Lush

Lush - Superblast! guitar tab

"Superblast!" - Lush

Written by Emma Anderson

Transcribed by Brian Ebbitt

Intro:

A-B

e----5/7-------------

b----5/7-------------

g----6/8-------------

d----7/9-------------

a----7/9-------------

E----5/7-------------

Verse:

A B

me in the world

G A

losing tears, shedding fears

A B

strain for the sun

G A

make you run, make you come

(Chorus):

C#-B-D-G(I)

you don't know

you don't know

Intro

(Verse):

I'm in my home

all the time, on my own

low finger fine

take what's mine, from behind

(Chorus):

C# B

you don't know

D GI

you don't know

C# B

it's not there

F#I G

you don't care

Intro

(Chorus-II)

F#I A

you're still inside of me

B A

beneath the cotton core

F#I A

my pictures smile at me

B E-C-F#I-G

and soon they'll rise and soar

intro

(Verse):

fill up my space

turn around, fade and trace

be absolute

blue and white, fatal fruit

she nylon smile

full of lies, shining eyes

cover my grin

take a chance, maybe win

(Chorus):

C# B

it's not there

D G

it's not fair

C# B

you don't know

F# G

you don't care

Intro

Interlude

Chords:

C# B A G D# E F#I GI F#

e---4----7---5---3---6----7---9----10--2-----

b---6----7---5---3---8----8---11---12--2-----

g---6----8---6---4---8----8---11---12--3-----

d---6----9---7---5---8----8---11---12--4-----

a---4----9---7---5---6----7---9----10--4-----

E---x----7---5---3---x----x---x----x---2-----

Get this song at:  amazon.com sheetmusicplus.com

Share your thoughts

0 Comments found