Lorrie Morgan

Lorrie Morgan - What Part Of No (w/ ) intro guitar tab

Tele_Tickler@

This one's a little tricky, but not bad once you get the Low E string tuned right.

Intro

E---|-----------------------------------------------------|--

B---|-----------------------------------------------------|--

G---|-----------------------------------------------------|--

D---|--6--5--3--5h6--5b--3--1--1--0--3--1-----------------|--

A---|--------------------------------------1h3--1---------|--

Eb---|----------------------------------------------2b--0--|--

Main Lick(before chorus)

E---|-----------------------|--

B---|-----------------------|--

G---|-----------------------|--

D---|--1--------------------|--

A---|-----1--3--1-----1-----|--

Eb---|--------------4-----0--|--

Get this song at:  amazon.com sheetmusicplus.com

Share your thoughts

0 Comments found