Loggins Kenny

Loggins Kenny - Danger Zone2 guitar tab

Symbols:

Bend        : !(note sounded)

Bend Release: (starting note)!

Hammer-on   : h

Pull-off    : p

Arpeggio    : {

Pianissimo  : ()

Vibrato     : ~

Triplets    : ^

Slide       : =

Muted String: x

Danger Zone - Kenny Loggins

Tune down 1/2 step     Eb Ab Db Gb Bb Eb

Notes: The + signs under each measure are intended to represent the beat of the song.

       Distortion & Chorus throughout

               Intro Rhythm

(Bass Intro)   D5E5                            D5E5                    G5        D5

------------------------------------------------------------------------------------|

------------------------------------------------------------------------------------|

---------------7=9---x-9---x-9---x-9---9---9---7=9---x-9---x-9---x-9===12---12---7--|

-----5-7---5---7=9---x-9---x-9---x-9---9---9---7=9---x-9---x-9---x-9===12---12---7--|

-5-7-----------5=7---x-7---x-7---x-7---7---7---5=7---x-7---x-7---x-7===10---10---5--|

------------------------------------------------------------------------------------|

   +   +   +   +   +   +   +   +   +   +   +   +   +   +   +   +   +    +    +   +    

                                                                  Revvin up....  (1C)

                                                                  Headin' into...(2C)

                                                                  Hotter on the..(3C)

  D5E5                            D5E5                          (let ring thru verse)

------------------------------------------------------------------------------------|

------------------------------------------------------------------------------------|

--7=9---x-9---x-9---x-9---9---9---7=9---x-9---x-9---x-9---9-----9-9-----------------|

--7=9---x-9---x-9---x-9---9---9---7=9---x-9---x-9---x-9---9-----9-9-----------------|

--5=7---x-7---x-7---x-7---7---7---5=7---x-7---x-7---x-7---7-----7-7-----------------|

------------------------------------------------------------------------------------|

  +   +   +   +   +   +   +   +   +   +   +   +   +   +   +   +   +   +   +   +      

  1st Chorus

  Highway to......

  D5                              E5

------------------------------------------------------------------------------------|

------------------------------------------------------------------------------------|

--7-------------------------------x-9---x-9---x-x-x-9---x-9-------------------------|

--7-------------------------------x-9---x-9---x-x-x-9---x-9-------------------------|

--5-------------------------------x-7---x-7---x-x-x-7---x-7-------------------------|

------------------------------------------------------------------------------------|

  +   +   +   +   +   +   +   +   +   +   +   +   +   +   +   +   +   +   +   +      

  Ride into......                                                          (to verse)    

  D5                              Csus2

----------------------------------3-------------------------------------------------|

----------------------------------3-------------------------------------------------|

--7-------------------------------5-------------------------------------------------|

--7-------------------------------5-------------------------------------------------|

--5-------------------------------3-------------------------------------------------|

------------------------------------------------------------------------------------|

  +   +   +   +   +   +   +   +   +   +   +   +   +   +   +   +   +   +   +   +    

  2nd Chorus

  Highway to......

  D5                              E5

------------------------------------------------------------------------------------|

------------------------------------------------------------------------------------|

--7-------------------------------x-9---x-9---x-x-x-9---x-9-------------------------|

--7-------------------------------x-9---x-9---x-x-x-9---x-9-------------------------|

--5-------------------------------x-7---x-7---x-x-x-7---x-7-------------------------|

------------------------------------------------------------------------------------|

  +   +   +   +   +   +   +   +   +   +   +   +   +   +   +   +   +   +   +   +    

Take you right.....

  Csus2           D               Csus2

--3-------------------------------3-----------------------------|

--3---------------7---------------3-----------------------------|

--5---------------7---------------5-----------------------------|

--5---------------7---------------5-----------------------------|

--3---------------5---------------3-----------------------------|

----------------------------------------------------------------|

  +   +   +   +   +   +   +   +   +   +   +   +   +   +   +   +  

  You never say.......

  A5                              G5

----------------------------------------------------------------|

----------------------------------------------------------------|

--2-------------------------------------------------------------|

--2-------------------------------5-----------------------------|

--0-------------------------------5-----------------------------|

----------------------------------3-----------------------------|

  +   +   +   +   +   +   +   +   +   +   +   +   +   +   +   +      

  You never know.......                                          (Guitar Solo)

  Csus2                           D                              E

--3---------------------------------------------------------------0-----------------|

--3-------------------------------7-------------------------------0-----------------|

--5-------------------------------7-------------------------------9-----------------|

--5-------------------------------7-------------------------------9-----------------|

--3-------------------------------5-------------------------------7-----------------|

------------------------------------------------------------------0-----------------|

  +   +   +   +   +   +   +   +   +   +   +   +   +   +   +   +      

  Solo

  E

  (Note: Start the (16)!14 bend releases by bending the note before it is picked and

  then releasing it quickly to sound the 14)

------------------------------------------------------------------------------------|

--15!(17)---------------------------------------------------------------------------|

--------------(16)!14-12(16)!14-12(16)!14-12---14-14-12----------------------------------|

-----------------------------------------------------------14-14--------------------------|

------------------------------------------------------------------------------------|

------------------------------------------------------------------------------------|

-----------------------------------------------------|

------12-15p12-----12-15p12-----12-15Pp2-----12-15p12|

--14!(16)------14!(16)------14!(16)------14!(16)-----|

-----------------------------------------------------|

-----------------------------------------------------|

-----------------------------------------------------|

-----------------------------------------------------|

------12-15p12-----12-15p12-----12-15p12-----12-15p12|

--14!(16)------14!(16)------14!(16)------14!(16)-----|

-----------------------------------------------------|

-----------------------------------------------------|

-----------------------------------------------------|

                                                     (whammy bar bends)

------------------------------------------------------------------------------------|

--15p12-15p12-----------------------------------------------------------------------|

--------------14p12-14p12-----------------------------------------------------------|

---------------------------14p12-14p12------12---14--!(17)(14)(17)(14)(17)-14-------|

---------------------------------------14-------------------------------------------|

------------------------------------------------------------------------------------|

                                               Intro Rhythm & Verse 3

--17!(19)(17)-15-17-15---------------------------|

-----------------------17------------------------|

------------------------------12--12====7--------|

------------------------------12--12====7--------|

------------------------------10--10====5--------|

-------------------------------------------------|

  3rd (Outro) Chorus

  Highway to......

  D5                              E5

------------------------------------------------------------------------------------|

------------------------------------------------------------------------------------|

--7-------------------------------x-9---x-9---x-x-x-9---x-9-------------------------|

--7-------------------------------x-9---x-9---x-x-x-9---x-9-------------------------|

--5-------------------------------x-7---x-7---x-x-x-7---x-7-------------------------|

------------------------------------------------------------------------------------|

  +   +   +   +   +   +   +   +   +   +   +   +   +   +   +   +   +   +   +   +      

  Gonna take you.........

  D5                              E5

------------------------------------------------------------------------------------|

------------------------------------------------------------------------------------|

--7-------------------------------x-9---x-9---x-x-x-9---x-9-------------------------|

--7-------------------------------x-9---x-9---x-x-x-9---x-9-------------------------|

--5-------------------------------x-7---x-7---x-x-x-7---x-7-------------------------|

------------------------------------------------------------------------------------|

  +   +   +   +   +   +   +   +   +   +   +   +   +   +   +   +   +   +   +   +      

  Highway to........

  Csus2                           A5

--3---------------------------------------------------------------------------------|

--3---------------------------------------------------------------------------------|

--5-------------------------------2-------------------------------------------------|

--5-------------------------------2-------------------------------------------------|

--3-------------------------------0-------------------------------------------------|

------------------------------------------------------------------------------------|

  +   +   +   +   +   +   +   +   +   +   +   +   +   +   +   +   +   +   +   +  

  Ride into the.........

  Dsus2                           E5                                Repeat Outro 2x

--5---------------------------------------------------------------------------------|

--5---------------------------------------------------------------------------------|

--7-------------------------------9-------------------------------------------------|

--7-------------------------------9-------------------------------------------------|

--5-------------------------------7-------------------------------------------------|

------------------------------------------------------------------------------------|

  +   +   +   +   +   +   +   +   +   +   +   +   +   +   +   +   +   +   +   +

Get this song at:  amazon.com sheetmusicplus.com

Share your thoughts

0 Comments found